Search tabs:
Browse artists: 0-9 | A | B | C | D | E | F | G | H | I | J | K | L | M | N | O | P | Q | R | S | T | U | V | W | X | Y | Z
/ Rob Zombie / The Sinister Urge (2001) / Demon Speeding guitar tab

Artist: Rob Zombie
Song: Demon Speeding

  Verse 1
E|----------------------------|
B|----------------------------|
G|----------------------------|
D|-0-0-00-0-3-5--0-0-00-0-6-5-|
A|-0-0-00-0-3-5--0-0-00-0-6-5-|
D|-0-0-00-0-3-5--0-0-00-0-6-5-| x3

  Verse 1 continued
E|------------------|
B|------------------|
G|------------------|
D|-0-0-00-0-3-5-6-5-|
A|-0-0-00-0-3-5-6-5-|
D|-0-0-00-0-3-5-6-5-| x1

  Chorus 1
E|----------------|
B|----------------|
G|----------------|
D|-0--1--22-3-6-5-|
A|-0--1--22-3-6-5-|
D|-0--1--22-3-6-5-| x4

  Chorus breakdown
E|------------------|
B|------------------|
G|------------------|
D|-0------6-5-0-----|
A|-0------6-5-0-----|
D|-0------6-5-0-----| x1

  Verse 2
E|----------------------------|
B|----------------------------|
G|----------------------------|
D|-0-0-00-0-3-5--0-0-00-0-6-5-|
A|-0-0-00-0-3-5--0-0-00-0-6-5-|
D|-0-0-00-0-3-5--0-0-00-0-6-5-| x3

  Verse 2 continued
E|------------------|
B|------------------|
G|------------------|
D|-0-0-00-0-3-5-6-5-|
A|-0-0-00-0-3-5-6-5-|
D|-0-0-00-0-3-5-6-5-| x1

  Chorus 2
E|----------------|
B|----------------|
G|----------------|
D|-0--1--22-3-6-5-|
A|-0--1--22-3-6-5-|
D|-0--1--22-3-6-5-| x4

  Chorus 2 continued
E|-------------------------------|
B|-------------------------------|
G|-------------------------------|
D|-0-0-0-0-1-1-1-2-2-2-3-3-66-55-|
A|-0-0-0-0-1-1-1-2-2-2-3-3-66-55-|
D|-0-0-0-0-1-1-1-2-2-2-3-3-66-55-| x3
Pm . . . . . . . . . . . .

  Play this after the end of chorus 2 continued
E|-----------|
B|-----------|
G|-----------|
D|-----------|
A|-----------|
D|-0-0-0-0-0-| x1
Pm . . . . .

  Bridge
E|----------------------------------------|
B|----------------------------------------|
G|----------------------------------------|
D|-6-5-3-2-666-----0-0-0----0-0-0-3-3-3-0-|
A|-6-5-3-2-666-----0-0-0----0-0-0-3-3-3-0-|
D|-6-5-3-2-666--3p-0-0-0-3p-0-0-0-3-3-3-0-| X2
Pm                   . .      . .

  Bridge continued
E|-----------------------------------------------------|
B|-----------------------------------------------------|
G|-----------------------------------------------------|
D|----0-0-0----0-0-0-3-3-3-0-----0-0-0----0-5-33-5-3-5-|
A|----0-0-0----0-0-0-3-3-3-0-----0-0-0----0-5-33-5-3-5-|
D|-3p-0-0-0-3p-0-0-0-3-3-3-0--3p-0-0-0-3p-0-5-33-5-3-5-| x1

  Final verse          Final verse continued
E|--------------|    E|----------------------------|
B|--------------|    B|----------------------------|
G|--------------|    G|----------------------------|
D|-0-0-00-0-6-5-|    D|-0-0-00-0-3-5--0-0-00-0-6-5-|
A|-0-0-00-0-6-5-|    A|-0-0-00-0-3-5--0-0-00-0-6-5-|
D|-0-0-00-0-6-5-| x1 D|-0-0-00-0-3-5--0-0-00-0-6-5-| x2

  Final verse continued
E|------------------|
B|------------------|
G|------------------|
D|-0-0-00-0-3-5-6-5-|
A|-0-0-00-0-3-5-6-5-|
D|-0-0-00-0-3-5-6-5-| x1

  Final chorus
E|----------------|
B|----------------|
G|----------------|
D|-0--1--22-3-6-5-|
A|-0--1--22-3-6-5-|
D|-0--1--22-3-6-5-| x4

  Final chorus continued
E|-------------------------------|
B|-------------------------------|
G|-------------------------------|
D|-0-0-0-0-1-1-1-2-2-2-3-3-66-55-|
A|-0-0-0-0-1-1-1-2-2-2-3-3-66-55-|
D|-0-0-0-0-1-1-1-2-2-2-3-3-66-55-| x3
Pm . . . . . . . . . . . .

  Final chorus Ending
E|---------|
B|---------|
G|---------|
D|-0-0-0-0-|
A|-0-0-0-0-|
D|-0-0-0-0-| x1
Pm . . . .

Thats it! Im pretty sure its 100% correct. Plz rate for me. Thanx.

Tabbed by: Tim P


Rob Zombie albums
2001 The Sinister Urge
1998 Hellbilly Deluxe
The Sinister Urge tabs
02Demon Speeding tabbass tab
07Feel So Numb tabbass tab
10Scum of the Earth tabbass tab
11House of 1000 Corpses tabbass tab

 

1