Search tabs:
Browse artists: 0-9 | A | B | C | D | E | F | G | H | I | J | K | L | M | N | O | P | Q | R | S | T | U | V | W | X | Y | Z
/ Sentenced / The Cold White Light (2002) / No One There guitar tab

song: no one there
band: sentenced
album: the cold white light (2002)



intro:
d|-1-0---0h1-------1----1-0---1-------1-0----1-0---0-----0------------------0------|
A|-3---3-----3---3---3--3---3-----1-3-----1--3---3-----3---3----1-----1-----------1|
F|-2-----------2--------2-------2------------2-------2-------2--2-2-----2-----2----|
C|--------------------------------------------------------------2---2-----2-----2--|
G|---------------------------------------------------------------------------------|
D|---------------------------------------------------------------------------------|



verse:
d|--------0--------1-------1-0---------1--------3-1-------1-0-------0--|
A|------3--------3-------3-----3-----3--------1---------1---------1----|
F|----2--------2-------2-----------2--------2---------2---------2------|
C|--0--------0-------0-----------0--------3---------3---------3--------|
G|---------------------------------------------------------------------|
D|---------------------------------------------------------------------|

d|--------1-------3-1-------0--------1-0--------|
A|------1-------1---------1--------1-----1---1--|
F|----2-------2---------2--------0---------0----|
C|--3-------3---------3-------------------------|
G|-----------------------------4----------------|
D|----------------------------------------------|



chorus:
d|---------------------------------------------------------------------------|
A|17-15-13-------13--17-15-13-----------17-15-13-------13--17-15-13-18-17-15-|
F|---------12-14--------------12-14-12-----------12-14-----------------------| gtr
C|---------------------------------------------------------------------------|  I
G|---------------------------------------------------------------------------|
D|---------------------------------------------------------------------------|
 |									     |
d|---------------------------------------------------------------------------|
A|---------------------------------------------------------------------------|
F|-7-7-7-7--3-3-3-3---5-5-5-5------------7-7-7-7--3-3-3-3---5-5-5-5----------| gtr
C|-7-7-7-7--3-3-3-3---5-5-5-5--7-7-7-7---7-7-7-7--3-3-3-3---5-5-5-5--7-7-7-7-|  II
G|-5-5-5-5--1-1-1-1---3-3-3-3--7-7-7-7---5-5-5-5--1-1-1-1---3-3-3-3--7-7-7-7-|
D|-----------------------------5-5-5-5-------------------------------5-5-5-5-|



riff 1:
d|-----------------------------------------------------------------|
A|-----------------------------------------------------------------| <- listen to the
F|-----------------------------------------------------------------|    song for
C|--5-5-5-5-5-5-5-5-5-5-5-5-5-5-5-5-5-7-7-7-7-7-7-7-7-5-5-5-5-5-5--|    strumming
G|--5-5-5-5-5-5-5-5-5-5-5-5-5-5-5-5-5-7-7-7-7-7-7-7-7-5-5-5-5-5-5--|
D|-----------------------------------------------------------------|



riff 2:
d|--15-----------------------15-----------------------|
A|-----18-17-18-13----13-15-----18-17-18-13----13-15--|
F|-----------------12-----------------------12--------| gtr
C|----------------------------------------------------|  I
G|----------------------------------------------------|(basically this is
D|----------------------------------------------------| played by the piano)
 |						      |
d|----------------------------------------------------|
A|----------------------------------------------------|
F|---9-----------3------------9-----------------------| gtr
C|---9-----------3------------9-----------5-----------|  II
G|---7-----------1------------7-----------5-----------|
D|----------------------------------------3-----------|

d|--15------------------------------------------|
A|-----18-17-18-13------------------------------|
F|-----------------12-10-10-9-9-10-12-14-12-9---| gtr
C|----------------------------------------------|  I
G|----------------------------------------------|
D|----------------------------------------------|
 |						|
d|----------------------------------------------|
A|----------------------------------------------|
F|---9-----------3--------5---------------------| gtr
C|---9-----------3--------5---------9-----------|  II
G|---7-----------1--------3---------9-----------|
D|----------------------------------7-----------|



riff 3:
d|--1-0---------1-----0---------------1--------1-0-------------------1-0-1-3--|
A|------3-1---3---3-----3-1-3---1-3-1---3-1--------3-1---3-1-3--1-3-----------|
F|----------0-----------------0-------------0----------0----------------------|
C|----------------------------------------------------------------------------|
G|----------------------------------------------------------------------------|
D|----------------------------------------------------------------------------|



solo:
d|----------------------------------------------------------|
A|--10-8-10-13-10-8-6-8h10p8-6-10-8-10-13-10-8-6-8-10-8-10--|
F|----------------------------------------------------------|
C|----------------------------------------------------------|
G|----------------------------------------------------------|
D|----------------------------------------------------------|

d|-----------------------------------------------|
A|--10-8-10-13-10-8-6-8h10p8-6--8-6-8-13-8-6-10--|
F|-----------------------------------------------|
C|-----------------------------------------------|
G|-----------------------------------------------|
D|-----------------------------------------------|



song structure:
		intro
		verse x2
		chorus x2
		verse + riff 1
		chorus
		riff 2
		riff 3
		chorus (only gtr 2)
		chorus (only gtr 2) + solo
		chorus x3


Sentenced albums
2002 The Cold White Light
2000 Grimson
1998 Frozen
1996 Down
1995 Love & Death
1995 Amok
1991 Shadows Of The Past
The Cold White Light tabs
01Konevitsan Kirkonkellot tabbass tab
02Cross My Heart and Hope to Die tabbass tab
04Neverlasting tabbass tab
06Excuse Me While I Kill Myself tabbass tab
07Blood and Tears tabbass tab
08You Are the One tabbass tab
11No One There tabbass tab

 

1