Search tabs:
Browse artists: 0-9 | A | B | C | D | E | F | G | H | I | J | K | L | M | N | O | P | Q | R | S | T | U | V | W | X | Y | Z
/ Six Feet Under / Alive and Dead (1996) / Human Target (live) guitar tab

================================================================================
- Title: Human Target (Live)						       =
- Artist: Six Feet Under						       =
- Album: Alive And Dead EP
- TabBy: PantherX19@yahoo.com
================================================================================

Dropped D tuning

Intro:

E|------------|
B|------------|
G|------------|
D|---5--------|
A|---5--------|
E|---5--------|


Main Riff:
1. 3 times                                   2. 4th
time
E|-----------------------------------------||-------------------------------------|
B|-----------------------------------------||-------------------------------------|
G|-----------------------------------------||-------------------------------------|
D|-----------------------------------------||-------------------------------------|
A|------------------------------------2----||-------------------------------------|
E|-0--0--0--0--0----3--3--3--3--3--------3-||-0--0--0--0--0----1--1--1--1----1--1-|


Chorus:

E|-----------------|----------------------------------------|
B|-----------------|----------------------------------------|
G|-----------------|----------------------------------------|
D|-----------------|----------------------------------------|
A|-0--0--0--0--0---|---0--0--0--0--0----0--0--1----0--0--1--|
E|-0--0--0--0--0---|---0--0--0--0--0----0--0--1----0--0--1--|


E|-----------------|----------------------------------------|
B|-----------------|----------------------------------------|
G|-----------------|----------------------------------------|
D|-----------------|----------------------------------------|
A|-0--0--0--0--0---|---0--0--0--0--0----0--0--6----0--0--6--|
E|-0--0--0--0--0---|---0--0--0--0--0----0--0--6----0--0--6--|


Bridge:

E|--------------------------------------------------|
B|--------------------------------------------------|
G|--------------------------------------------------|
D|--------------------------------------------------|
A|-0--0--0--0--4--4--4--3--3--3--3--3--1--1--1--1---|
E|-0--0--0--0--4--4--4--3--3--3--3--3--1--1--1--1---|



E|--------------------------------------------------|
B|--------------------------------------------------|
G|--------------------------------------------------|
D|--------------------------------------------------|
A|-0--0--0--0--4--4--3--3--3--3--4--4--6--6--6--6---|
E|-0--0--0--0--4--4--3--3--3--3--4--4--6--6--6--6---|


Six Feet Under albums
2005 13
2004 Graveyard Classics, Vol. 2
2003 Bringer of Blood
2001 True Carnage
2000 Graveyard Classics
1999 Maximum Violence
1997 Warpath
1996 Alive and Dead
1995 Haunted
Alive and Dead tabs
01Insect tabbass tab
02Drowning tabbass tab
03Grinder tabbass tab
05Human Target (live) tabbass tab
06Lycanthropy (live) tabbass tab

 

1