Search tabs:
Browse artists: 0-9 | A | B | C | D | E | F | G | H | I | J | K | L | M | N | O | P | Q | R | S | T | U | V | W | X | Y | Z
/ Smashing Pumpkins / Aeroplane Flies High (1996) / Ugly guitar tab

  			Ugly - Smashing Pumpkins
			Written By - Billy Corgan
		Transcribed By - BUGG.SUPERSTAR@S-GRIFFIN.COM

	
	This is another new song of the 1979 Single, its also on 
	the Mellon Collie Demos tape, but this is a little 	
	different. I'll do my Best with the Rythym, its just
	approximate, listen to the record, it'll come along.. Enjoy :)
 
       		* Eb Tuning (Eb,Ab,Db,Gb,Bb,Eb) *
               I think the Whole Song is Palm Muted

   *1 - Intro - Just the Same Chord Over and Over Again

Eb-|------------------------------------------------------------------|
Bb-|------------------------------------------------------------------|
Gb-|------------------------------------------------------------------|
Db-|-2----------------------------------------------------------------|
Ab-|-2----------------------------------------------------------------|
Eb-|-0----------------------------------------------------------------|

  *2 - Verse

Eb-|------------------------------------------------------------------|
Bb-|------------------------------------------------------------------|
Gb-|------------------------------------------------------------------|
Db-|-2-2-2-2--5-5-5-5--10-10-10-10-10-10-10-10------------------------|
Ab-|-2-2-2-2--5-5-5-5--10-10-10-10-10-10-10-10------------------------|
Eb-|-0-0-0-0--3-3-3-3---8--8--8--8--8--8--8--8------------------------|

  *3 - Chorus

Eb-|------------------------------------------------------------------|
Bb-|------------------------------------------------------------------|
Gb-|------------------------------------------------------------------|
Db-|-2-2-2-2-2-2-2-2--5-5-5-5-5-5-5-5--10-10-10-10-10-10-10-10--------|
Ab-|-2-2-2-2-2-2-2-2--5-5-5-5-5-5-5-5--10-10-10-10-10-10-10-10--------|
Eb-|-0-0-0-0-0-0-0-0--3-3-3-3-3-3-3-3---8--8--8--8--8--8--8--8--------|

Eb-|------------------------------------------------------------------|
Bb-|------------------------------------------------------------------|
Gb-|------------------------------------------------------------------|
Db-|-7-7-7-7-7-7-7-7--------------------------------------------------|
Ab-|-7-7-7-7-7-7-7-7--------------------------------------------------|
Eb-|-5-5-5-5-5-5-5-5--------------------------------------------------|

Eb-|------------------------------------------------------------------|
Bb-|------------------------------------------------------------------|
Gb-|------------------------------------------------------------------|
Db-|-2-2-2-2--5-5-5-5--10-10-10-10-10-10-10-10------------------------|
Ab-|-2-2-2-2--5-5-5-5--10-10-10-10-10-10-10-10------------------------|
Eb-|-0-0-0-0--3-3-3-3---8--8--8--8--8--8--8--8------------------------|

Eb-|------------------------------------------------------------------|
Bb-|------------------------------------------------------------------|
Gb-|------------------------------------------------------------------|
Db-|-2-2-2-2--5-5-5-5--10-10-10-10--7-7-------------------------------|
Ab-|-2-2-2-2--5-5-5-5--10-10-10-10--7-7-------------------------------|
Eb-|-0-0-0-0--3-3-3-3---8--8--8--8--5-5-------------------------------|

Eb-|------------------------------------------------------------------|
Bb-|------------------------------------------------------------------|
Gb-|------------------------------------------------------------------|
Db-|-2-2-2-2--5-5-5-5--10-10-10-10--7-7-------------------------------|
Ab-|-2-2-2-2--5-5-5-5--10-10-10-10--7-7-------------------------------|
Eb-|-0-0-0-0--3-3-3-3---8--8--8--8--5-5-------------------------------|

Eb-|------------------------------------------------------------------|
Bb-|------------------------------------------------------------------|
Gb-|------------------------------------------------------------------|
Db-|-2-2-2-2--5-5-5-5--10-10-10-10-10-10-10-10------------------------|
Ab-|-2-2-2-2--5-5-5-5--10-10-10-10-10-10-10-10------------------------|
Eb-|-0-0-0-0--3-3-3-3---8--8--8--8--8--8--8--8------------------------|

  *4 - Verse 2

Eb-|------------------------------------------------------------------|
Bb-|------------------------------------------------------------------|
Gb-|------------------------------------------------------------------|
Db-|-2-2-2-2--5-5-5-5--10-10-10-10-10-10------------------------------|
Ab-|-2-2-2-2--5-5-5-5--10-10-10-10-10-10------------------------------|
Eb-|-0-0-0-0--3-3-3-3---8--8--8--8--8--8------------------------------|

Eb-|------------------------------------------------------------------|
Bb-|------------------------------------------------------------------|
Gb-|------------------------------------------------------------------|
Db-|-2-2-2-2--5-5-5-5--10-10-10-10--7-7-------------------------------|
Ab-|-2-2-2-2--5-5-5-5--10-10-10-10--7-7-------------------------------|
Eb-|-0-0-0-0--3-3-3-3---8--8--8--8--5-5-------------------------------|

Eb-|------------------------------------------------------------------|
Bb-|------------------------------------------------------------------|
Gb-|------------------------------------------------------------------|
Db-|-2-2-2-2--5-5-5-5--10-10-10-10-10-10------------------------------|
Ab-|-2-2-2-2--5-5-5-5--10-10-10-10-10-10------------------------------|
Eb-|-0-0-0-0--3-3-3-3---8--8--8--8--8--8------------------------------|

Eb-|-----------------------------------------------------------------|
Bb-|-----------------------------------------------------------------|
Gb-|-----------------------------------------------------------------|
Db-|-2-2-2-2--5-5-5-5--10-10-10-10--7-7------------------------------|
Ab-|-2-2-2-2--5-5-5-5--10-10-10-10--7-7------------------------------|
Eb-|-0-0-0-0--3-3-3-3---8--8--8--8--5-5------------------------------|

  *5

Eb-|-----------------------------------------------------------------|
Bb-|-----------------------------------------------------------------|
Gb-|-----------------------------------------------------------------|
Db-|-12-12-12-12-12-12--10-10-10-10-10--2-2-2------------------------|
Ab-|-12-12-12-12-12-12--10-10-10-10-10--2-2-2------------------------|
Eb-|-10-10-10-10-10-10---8--8--8--8--8--0-0-0------------------------|

  *6

Eb-|-----------------------------------------------------------------|
Bb-|-----------------------------------------------------------------|
Gb-|-----------------------------------------------------------------|
Db-|-2-2-2-2--5-5-5-5--10-10-10-10-10-10-10-10-----------------------|
Ab-|-2-2-2-2--5-5-5-5--10-10-10-10-10-10-10-10-----------------------|
Eb-|-0-0-0-0--3-3-3-3---8--8--8--8--8--8--8--8-----------------------|

Eb-|-----------------------------------------------------------------|
Bb-|-----------------------------------------------------------------|
Gb-|-----------------------------------------------------------------|
Db-|-2-2-2-2--5-5-5-5--10-10-10-10-10-10-10-10-----------------------|
Ab-|-2-2-2-2--5-5-5-5--10-10-10-10-10-10-10-10-----------------------|
Eb-|-0-0-0-0--3-3-3-3---8--8--8--8--8--8--8--8-----------------------|

Eb-|-----------------------------------------------------------------|
Bb-|-----------------------------------------------------------------|
Gb-|-----------------------------------------------------------------|
Db-|-2-2-2-2--5-5-5-5--10-10-10-10-10-10-10-10-----------------------|
Ab-|-2-2-2-2--5-5-5-5--10-10-10-10-10-10-10-10-----------------------|
Eb-|-0-0-0-0--3-3-3-3---8--8--8--8--8--8--8--8-----------------------|

Eb-|-----------------------------------------------------------------|
Bb-|-----------------------------------------------------------------|
Gb-|-----------------------------------------------------------------|
Db-|-2-2-2-2--5-5-5-5--10-10-10-10--7-7------------------------------|
Ab-|-2-2-2-2--5-5-5-5--10-10-10-10--7-7------------------------------|
Eb-|-0-0-0-0--3-3-3-3---8--8--8--8--5-5------------------------------|

Eb-|-----------------------------------------------------------------|
Bb-|-----------------------------------------------------------------|
Gb-|-----------------------------------------------------------------|
Db-|-2-2-2-2--5-5-5-5--10-10-10-10-10-10-10-10-----------------------|
Ab-|-2-2-2-2--5-5-5-5--10-10-10-10-10-10-10-10-----------------------|
Eb-|-0-0-0-0--3-3-3-3---8--8--8--8--8--8--8--8-----------------------|

Eb-|-----------------------------------------------------------------|
Bb-|-----------------------------------------------------------------|
Gb-|-----------------------------------------------------------------|
Db-|-2-2-2-2--5-5-5-5--10-10-10-10--7-7------------------------------|
Ab-|-2-2-2-2--5-5-5-5--10-10-10-10--7-7------------------------------|
Eb-|-0-0-0-0--3-3-3-3---8--8--8--8--5-5------------------------------|

Eb-|-----------------------------------------------------------------|
Bb-|-----------------------------------------------------------------|
Gb-|-----------------------------------------------------------------|
Db-|-2-2-2-2--5-5-5-5--10-10-10-10-10-10-10-10-----------------------|
Ab-|-2-2-2-2--5-5-5-5--10-10-10-10-10-10-10-10-----------------------|
Eb-|-0-0-0-0--3-3-3-3---8--8--8--8--8--8--8--8-----------------------|

Eb-|-----------------------------------------------------------------|
Bb-|-----------------------------------------------------------------|
Gb-|-----------------------------------------------------------------|
Db-|-2-2-2-2--5-5-5-5--10-10-10-10-10-10-10-10-----------------------|
Ab-|-2-2-2-2--5-5-5-5--10-10-10-10-10-10-10-10-----------------------|
Eb-|-0-0-0-0--3-3-3-3---8--8--8--8--8--8--8--8-----------------------|


Structure - *1,*2 x4,*3,*4,*3,*5 x9,*6

	Sorry if this is a little complicated, its all there, and
	this is the only way I could come up with to TAB it out, so
	That that theres sort of a rythym in the TAB, instead of just
	the chords.  If you have any questions, or need some help
	figuring this out, write me at the address at the top..
	Later, Bugg :)

Lyrics -
Don't look in the mirror
Don't like what I see staring back at me
Everything is clearer
I'll never see what you see

It's not me
So beautiful and free
I'll never be what you need
Can't help at all
I was born so beautiful but no I'm ugly

And i rot in my skin
As a piece of me dies every day
I know I'm nothing
I know theres nothing I can't say to change
The judgement in there ways
I'll never be what you need
CAn't help at all
My love was so beautiful but no I'm ugly

Yeah, good enough but I don't care
I'm good enough but I'm not there
I'm good enough but I don't care
The sun is out but I'm not there
I'm good enough but I don't care
The sun is out but I'm not there
I'm good enough, good enough

Don't look in the mirror
I don't like what I see staring back at me
Everything is clearer
I'll never see what you see
And I rot in my skin
As a piece of me dies every day
I know I'm nothing
Because I'm Ugly

==========================================
#
Tabbed by Brian (Ansigod) McCall 

UGLY - by Smashing Pumpkins from teh Mellon Collie demos
====   written by William P. Corgan Jr.

*1

|----0----------------------------0------------------------
|----0------3---------3-----------0------3---------3-------
|----0------0-0-----0----0---0----0------0-0-----0----0---0
|-2--2--------0---2--------0---2--2--------0---2--------0--
|-2--2----2-----3--------------2--2--2-2-----3-------------
|-0--0--3----------------------0--0--3---------------------

|----0----------------------------0------------------------
|----0------3---------3-----------0------3---------3-------
|----0------0-0-----0----0---0----0------0-0-----0----0---0
|-2--2--------0---2--------0---2--2--------0---2--------0--
|-2--2----2-----3--------------2--2--2-2-----3-------------
|-0--0--3----------------------0--0--3---------------------

|-----0-----------3---3-3------------------------------------
|-----0-----------3-3-3-3-3---3-3-3-3-3-----3-----3-3--------
|-----0-0-0-0-0---0-0-0-0-0---0-0-0-0-0-2---2-2-2-2-2--------
|-2---2-2-2-2-0---0-0-0-0-2-2-2-2-2-2-2-2-2-2-2-2-2-2--------
|-2-2-2-2-2-2-2-2-2-2-2-2-3-3-3-3-3-3-3-0-0-0-0-0-0-0--------
|-0-0-0-0---0-3-3-3-3-3-3------------------------------------

|--------------------------------------------------------
|---------------------3-----3----------------------------
|-----0-------0------------------------------------------
|-------------------2-----2---2--------------------------
|---2---2---2-----3-----0--------------------------------
|-0-------3-----3----------------------------------------
                               ^repeat with
                               a few extra
                               strings thrown
                               in...

*2 ("I'm good enought but I don't care..."

|-----0---------------0------------------------------------
|-3---3---3-3-3-3-0---0------------------------------------
|-2---2-2-2-0-0-0-0---0------------------------------------
|-0-0-0-0-0-2-2-2-2-2-2------------------------------------
|-0-0-0-0-0-3-3-3-2-2-2------------------------------------
|-----------------0-0-0------------------------------------
                       ^repeat

Repeat *1


Smashing Pumpkins albums
2000 Machina: The Machines of God
1998 Adore
1996 Aeroplane Flies High
1995 Mellon Collie And The Infinite Sadness - Twilight To Starlig
1995 Mellon Collie And The Infinite Sadness - Dawn To Dusk
1994 Pisces Iscariot
1993 Siamese Dream
1991 Gish
Aeroplane Flies High tabs
01Bullet With Butterfly Wings tabbass tab
02Said Sadly tabbass tab
03You're All I've Got Tonight tabbass tab
04Clones (We're All) tabbass tab
05A Night Like This tabbass tab
06Destination Unknown tabbass tab
07Dreaming tabbass tab
081979 tabbass tab
09Ugly tabbass tab
10The Boy tabbass tab
11Cherry tabbass tab
12Believe tabbass tab
13Set the Ray to Jerry tabbass tab
14Zero tabbass tab
15God tabbass tab
16Mouths of Babes tabbass tab
17Tribute to Johnny tabbass tab
18Marquis in Spades tabbass tab
19Pennies tabbass tab
20Pastichio Medley tabbass tab
21Tonight, Tonight tabbass tab
22Meladori Magpie tabbass tab
23Rotten Apples tabbass tab
24Jupiter's Lament tabbass tab
25Medellia of the Grey Skies tabbass tab
26Blank tabbass tab
27Tonite Reprise tabbass tab
28Thirty-Three tabbass tab
29The Last Song tabbass tab
30The Aeroplane Flies High (Turns Left, Looks Right) tabbass tab
31Transformer tabbass tab
32The Bells tabbass tab
33My Blue Heaven tabbass tab

 

1