Search tabs:
Browse artists: 0-9 | A | B | C | D | E | F | G | H | I | J | K | L | M | N | O | P | Q | R | S | T | U | V | W | X | Y | Z
/ Sodom / Ausgebombt (1989) / Incest guitar tab

SODOM - INCEST
(Agent Orange, 1989)

Key
= after note = vibrato
^ after note = heavy vibrato
\ = slide down
/ = slide up
+ = tap
h = hammer
p = pull
n = natural harmonic
s = pinching harmonic (squeal)
* = tremolo pick
t = trill
b = bend
|-3-| = triplet

n number above the tab = play the first part then the first finishing part
			 play the first part a second time and then play the second finishing part
			 etc.

Intro

E -------------------------------------------------
B -------------------------------------------------
G -------------------------------------------------
D -------------------------------------------------
A -4-----4-----4-----4-----4-----4-----4-----4-----
E -6--0--6--0--6--0--6--0--6--0--6--0--6--0--6--0--

Riff 1

E ---------------------------------------------------------------------------------------------
B ---------------------------------------------------------------------------------------------
G ------------------------4--------------------------------------------------------------------
D -5----------------------4----------------------3----------------------3----------------------
A -5----------------------2-22-22-22-22-22-22-22-3----------------------3----------------------
E -3-33-33-33-33-33-33-33------------------------1-11-11-11-11-11-11-11-1-11-11-11-11-11-11-11-

Riff 1A

E -----------------------------------------------------------------------------------------------
B -----------------------------------------------------------------------------------------------
G ------------------------4----------------------------------------------------------------------
D -5----------------------4----------------------3----------------------3----------------------5-
A -5----------------------2-22-22-22-22-22-22-22-3----------------------3----------------------5-
E -3-33-33-33-33-33-33-33------------------------1-11-11-11-11-11-11-11-1-11-11-11-11-11-11-11-3-

Riff 2

E ------------------------------------------------------------------------------------
B ------------------------------------------------------------------------------------
G ------------------------------------------------------------------------------------
D -----------------------------------------------3-----------------------------7------
A -2----------------------2----------------------3----------------------4------7------
E -3-00-00-00-00-00-00-00-3-00-00-00-00-00-00-00-1-00-00-00-00-00-00-00-6--0-0-5--0-0-

Riff 2A

E --------------------------------------------------------------------------------------
B --------------------------------------------------------------------------------------
G --------------------------------------------------------------------------------------
D -----------------------------------------------3-----------------------------7------2-
A -2----------------------2----------------------3----------------------4------7------2-
E -3-00-00-00-00-00-00-00-3-00-00-00-00-00-00-00-1-00-00-00-00-00-00-00-6--0-0-5--0-0-0-

Riff 3A

E ---------------------------------------------------------------
B ---------------------------------------------------------------
G ---------------------------------------------------------------
D -5-4-------------5-4-------------5-4-------------5-4-----7--9--
A -5-4-------------5-4-------------5-4-------------5-4-----7--9--
E -3-2-2-2-2-2-2-2-3-2-2-2-2-2-2-2-3-2-2-2-2-2-2-2-3-2-2-2-5--7--

Riff 3

E -----------------------------------------------------------------------------------
B -----------------------------------------------------------------------------------
G -----------------------------------------------------------------------------------
D -5-4-------------------5-4-------------------5-4-------------------5-4-------7--9--
A -5-4-------------------5-4-------------------5-4-------------------5-4-------7--9--
E -3-2-22-22-22-22-22-22-3-2-22-22-22-22-22-22-3-2-22-22-22-22-22-22-3-2-22-22-5--7--

Fill 1

E ------------------------------------------------
B ------------------------------------------------
G ------------------------------------------------
D -5-2--------------------------------------------
A -5-2--------------------------------------------
E -3-0--0-0-0-0-0-0-0-0-0-0-0-0-0-0-0-0-0-0-0-0-0-

Riff 4

E -----------------------------------------------------------
B -----------------------------------------------------------
G -------------------------3--------------------4-3----------
D -2---------------4-5-----3----2---------------4-3-----5----
A -2---------------4-5-3-2-1----2---------------2-1-----5----
E -0-0-0-0-0-0-0-0-2-3----------0-0-0-0-0-0-0-0-----0-2-3----

Riff 4A

E -----------------------------------------------------------
B -----------------------------------------------------------
G -----------------------------------------------------------
D -2----------------------------2----------------------------
A -2-------------------3-2-1----2---------------2-1----------
E -0-0-0-0-0-0-0-0-2-3----------0-0-0-0-0-0-0-0-----0-2-3----

Riff 4B

E -----------------------------------------------------------
B -----------------------------------------------------------
G -----------------------------------------------------------
D -2-------------------3-2-1----2---------------2-1----------
A -2---------------2-3----------2-------------------0-2-3----
E -0-0-0-0-0-0-0-0--------------0-0-0-0-0-0-0-0--------------

Riff 4C

E -----------------------------------------------------------
B -----------------------------------------------------------
G ---------------------5-4-3--------------------4-3----------
D -2---------------4-5----------2-------------------2-4-5----
A -2----------------------------2----------------------------
E -0-0-0-0-0-0-0-0--------------0-0-0-0-0-0-0-0--------------

Fill 2

E ------------------------------------
B ------------------------------------
G ------------------------------------
D -2----------------5-2---------------
A -2----------------5-2---------------
E -0----------------3-0---------------

Riff 5

E -------------------------------------
B -------------------------------------
G -------------------------------------
D -5-2---------------5-2---------------
A -5-2---------------5-2---------------
E -3-0---------------3-0---------------

Riff 5A

E -----------------------------------------------
B -----------------------------------------------
G -----------------------------------------------
D -5-2---------------5-2---------------5-2-----2-
A -5-2---------------5-2---------------5-2-----2-
E -3-0---------------3-0---------------3-0-----0-

Fill 3

E -------------------
B -------------------
G -------------------
D -5-2---------------
A -5-2---------------
E -3-0---------------

Order

Intro x 1
Riff 1 x 3
Riff 1A x 1
Riff 2 x 3
Riff 2A x 1
Riff 2 x 4
Riff 3A x 4
Riff 1 x 4
Solo over Riff 2 x 4
Solo over Riff 3 x 4
Riff 1 x 4
Fill 1 x 1
Riff 4 x 2
Riff 4A x 2
Riff 4B/4C x 2
Fill 2 x 1
Riff 5 x 2
Fill 3 x 1
Riff 2 x 4
Riff 3 x 4
Riff 1 x 3
Riff 1A x 1
Riff 5A x 1

Tabbed by Radiohater 2003


Sodom albums
1999 Code Red
1994 Get What You Deserve
1993 Aber Bitte Mit Sahne
1992 Tapping The Vein
1990 Better Off Dead
1989 Agent Orange
1989 Ausgebombt
1987 Expurse Of Sodomy
1987 Persecution Mania
1986 Obsessed By Cruelty
1985 In The Sign Of Evil
Ausgebombt tabs
01Ausgebombt tabbass tab
03Incest tabbass tab

 

1