Search tabs:
Browse artists: 0-9 | A | B | C | D | E | F | G | H | I | J | K | L | M | N | O | P | Q | R | S | T | U | V | W | X | Y | Z
/ Stone Temple Pilots / Tiny Music (Songs From The Vatican Gift Shop) (1996) / Adhesive guitar tab

The verse...
  
1.My friend blue...    His family tree...
       A                E? 
a ||---5----------------4--------------------|
B ||---5----------------5--------------------|
G ||---6----------------4--------------------|
D ||---7----------------6--------------------|
A ||---7----------------7--------------------|
E ||---5----------------4--------------------|
 

The chorus...
  F#m                                                  A
1.   Grab the hate and drown it out, Grab the beat and drum it out, 
              B 
     it's all so confusing

e|--2-------5-------7-------------|
B|--2-------5-------7-------------|
G|--2-------6-------8-------------|
D|--4-------7-------9-------------|
A|--4-------7-------9-------------|
E|--2-------5-------7-------------|
 
The Bridge...(I'm not so sure!)

E             C                  D
Adhesive love Adhesive, Adhesive looooooooove


Stone Temple Pilots albums
2001 Shangri-La Dee Da
1999 No. 4
1996 Tiny Music (Songs From The Vatican Gift Shop)
1994 Purple
1992 Core
Tiny Music (Songs From The Vatican Gift Shop) tabs
01Press Play tabbass tab
02Pop's Love Suicide tabbass tab
03Tumble In The Rough tabbass tab
04Big Bang Baby tabbass tab
05Lady Picture Show tabbass tab
06And So I Know tabbass tab
07Trippin' On A Hole In A Paper Heart tabbass tab
08Art School Girl tabbass tab
09Adhesive tabbass tab
10Ride The Cliche tabbass tab
11Daisy tabbass tab
12Seven Caged Tigers tabbass tab

 

1