Search tabs:
Browse artists: 0-9 | A | B | C | D | E | F | G | H | I | J | K | L | M | N | O | P | Q | R | S | T | U | V | W | X | Y | Z
/ / / guitar tab

The Stranglers - Nice n Sleazy
Tabbed By: Reecy
Email: Bushhead81@Hotmail.com

Tuning: Standard (E A D G B E)



Guitar intro
 Mainly Bm chord is played, then A
E|-7-7-7-7-7-7-7-7---------------5-5-5-5-5-5-5-5-5--------------------------------------------||
B|-7-7-7-7-7-7-7-7---------------4-4-4-4-4-4-4-4-4--------------------------------------------||
G|-7-7-7-7-7-7-7-7---------------4-4-4-4-4-4-4-4-4--------------------------------------------||
D|---------------------------------------------------------------------------||
A|---------------------------------------------------------------------------||
E|---------------------------------------------------------------------------||

 Bit before Nice N Sleazy does it bit
E|---7-7-7-7--5-5-5-5--3-3-3-3--2--2----------------------------------------------------||
B|---7-7-7-7--5-5-5-5--3-3-3-3--2--2-----------------------------------------------------||
G|---7-7-7-7--6-6-6-6--4-4-4-4--3--3------------------------------------------------------||
D|---------------------------------------------------------------------------||
A|---------------------------------------------------------------------------||
E|---------------------------------------------------------------------------||
   Bm A G  F#  Bm
 Nice N Sleazy does it bit
E|-7--5-3---2--------------------------------------------------------------------------||
B|-7--5-3---2--Then back to Bm--------------------------------------------------------------------------||
G|-7--6-4---3--------------------------------------------------------------------------||
D|---------------------------------------------------------------------------||
A|---------------------------------------------------------------------------||
E|---------------------------------------------------------------------------||

 Does it does it does it everytime bit
E|-7--5--7--5--7--5--3--2-----------------------------------------------------
B|-7--5--7--5--7--5--3--2--Again back to Bm---------------------------------------------
G|-7--6--7--6--7--6--4--3---------------------------------------------
D|-----------------------------------------------------------------
A|------------------------------------------------------------------
E|------------------------------------------------------------------
   Bm A  Bm A  Bm A  G  F#
 Bass bit
E|---------------------------------------------------------------------
B|-0---------------0---------------------------------------------------
G|---2-0-------------2-0-----------------------------------------------
D|-------2-0-------------2-0------------0---2---3-------0---2---3------
A|-----------2-0-2-----------2-0-2----2---2---2---2-2-2---2---2---2-2-2
E|---------------------------------------------------------------------


E|--------------------
B|-0------------------
G|---2-0--------------
D|-------2-0----------
A|-----------2-0-2----
E|--------------------


albums
tabs

 

1