Search tabs:
Browse artists: 0-9 | A | B | C | D | E | F | G | H | I | J | K | L | M | N | O | P | Q | R | S | T | U | V | W | X | Y | Z
/ / / guitar tab

Artist: The Stranglers
Song: Golden Brown
Tabber: Monkeysonmars (a.k.a jamie chennells)

any comments...superintendantchennells@hotmail.com

intro: Bm F#m G D (x3) Bm F#m A G

Em D Em D


Em     D      Em           D
Golden brown, texture like sun
Em      D     Em           D
Lays me down, with my mind she runs
Em             D      Em         D
Throughout the night, no need to fight
Em      D     Em          D
Never a frown with golden brown


Em D Em D

Em    D    Em            D
Every time just like the last
Em     D    Em          D
On her ship tied to the mast
Em         D      Em            D
To distant lands, takes both my hands
Em      D     Em          D
Never a frown with golden brown


Bm F#m G D (x3) Bm F#m A G

Em D Em D

Em     D      Em        D
Golden brown, finer temptress
Em          D    Em            D
Through the ages she's heading west
Em        D    Em          D
From far away, stays for a day
Em      D     Em          D
Never a frown with golden brown


Bm F#m G D (x3) Bm F#m A G

Em D Em D

over guitar solo :
Em D Em D (x4)
Bm F#m G D (x3) Bm F#m A G
Em D Em D (x5)



Effects wise I just use a mild reverb for the echo and adjust my amp to a soft tone.
	
For this first bit i think its plucked with a plectrum very lightly rather than hammered and pulled.  It fades in
so the amount iíve written probably isnít accurate
       \\/            \\/
|---------------------------------------------------------
|---------------------------------------------------------
|-11-10-11-10-11-10-11-10-11-10-11-10-11/13-(let ring)----
|---------------------------------------------------------
|---------------------------------------------------------
|---------------------------------------------------------



|----------------------------------------------------11p9-
|---------------------------------------------------------
|-11-10-11-10-11-10-11-10-11-10-8-------------------------
|---------------------------------11-8--------------------
|--------------------------------------11-(let ring)------
|---------------------------------------------------------


|--------------------11p9---------------------------------
|-11p9----------------------11p9--------------------------
|------11-10----------------------11-10-------------------
|------------11---------------------------11--------------
|---------------------------------------------------------
|---------------------------------------------------------



|--------------------------------------------11-9---------
|--------------9-11-9-------------------9-11--------------
|--------10-11--------11-10-------10-11-------------------
|-----11--------------------11-11-------------------------
|-/13-----------------------------------------------------
|---------------------------------------------------------




Bm F#m G A... repeat this over the 'ne - ver a frown' bit
until fade.


albums
tabs

 

1