Search tabs:
Browse artists: 0-9 | A | B | C | D | E | F | G | H | I | J | K | L | M | N | O | P | Q | R | S | T | U | V | W | X | Y | Z
/ / / guitar tab

The Stranglers - Tramp
Tabbed By: Reecy
Email: Bushhead81@Hotmail.com

Tuning: Standard (E A D G B E)



TRAMP
-----
Transcription by: Richard Stanforth (rtstanforth@hotmail.com)
Date of Transcription: 5th April 2002

This transcription and more is exclusive to and can be found at :-
http://www.geocities.com/strangledchords


intro:

  (Em)                         (Em)
E----------------------------|---------------------------|
B----------------------------|---------------------------|
G--------0----------4--------|-------0----------4--------|
D------4----------5-----5----|-----4----------5-----5----|
A----4----------5---------5--|---4----------5---------5--|
E--0----------0--------------|-0----------0--------------|
  (Em)
E---------------------------------|
B---------------------------------|
G--------0---------------4--------|
D------4-----4---------5-----5----|
A----4---------4-----5---------5--|
E--0-------------0-0--------------|

Asus4 A Asus2 A Asus2 A

main riff:

  (Em)
E---------------------------------|
B---------------------------------|
G--------0--------------4---------|
D------4----4---------5-----5-----| <- play 3 times
A----4--------4-----5---------5---|
E--0------------0-0-------------0-|

Asus4 A Asus2 A Asus2 A


verse:

(main riff x3)
Takes the time to stay one place
Though his clothes aren't finest lace
Read the lines on a tramps face

(Asus4 A Asus2 A Asus2 A)


C          G               A              B
Taking his time, just like you, just like me
C         G        B
Wandering so fancy free
C             G           A           B
Searching for love in the call of the wild
C          G           B
Travelling lost like a child



verse:

(main riff x3)
Law has missed him every day
Doesn't need it anyway
Life is the next meal away

(Asus4 A Asus2 A Asus2 A)

(main riff x3)
A lost woman long ago
Does she miss him? does he know?
Does it matter in the snow?

(Asus4 A Asus2 A Asus2 A)


C          G               A              B
Taking his time, just like you, just like me
C         G        B
Wandering so fancy free
C             G           A           B
Searching for love in the call of the wild
C          G           B
Travelling lost like a child


instrumental bit:

  (G5)
E----------------------------------|
B----------------------------------|
G--------0---------------0---------|
D------0-----0---------0-----0-----| <- play 3 times
A----5---------5-----5---------5---|
E--3-------------3-3-------------3-|

(Asus4 A Asus2 A Asus2 A)


C          G               A              B
Taking his time, just like you, just like me
C         G        B
Wandering so fancy free
C             G           A           B
Searching for love in the call of the wild
C          G           B
Travelling lost like a child
C             G           A           B
Searching for love in the call of the wild
C          G           B
Travelling lost like a child


C5 G5 A5 B5, C5 G5 B5... (<-keyboard plays alternates
                          between major and sus4 chords)

End on B.


albums
tabs

 

1