Search tabs:
Browse artists: 0-9 | A | B | C | D | E | F | G | H | I | J | K | L | M | N | O | P | Q | R | S | T | U | V | W | X | Y | Z
/ / / guitar tab

Guitar Chords 1:

e:--------------------------------|--------------------------------|
b:--------------------------------|--------------------------------|
g:------5-------------------------|--------------------------------|
d:7-----3-----5-------------------|--------------------------------|
a:5-----------3-------------------|8-----7-----5-------------------|
d:--------------------------------|8-----7-----5-------------------|


e:--------------------------------|--------------------------------|
b:--------------------------------|--------------------------------|
g:------5-----7-------------------|5-------------------------------|
d:7-----3-----5-------------------|3-----7-----5-------------------|
a:5-------------------------------|------5-----3-------------------|
d:--------------------------------|--------------------------------|


e:--------------------------------|--------------------------------|
b:--------------------------------|--------------------------------|
g:------5-------------------------|--------------------------------|
d:7-----3-----5-------------------|--------------------------------|
a:5-----------3-------------------|8-----7-----5-------------------|
d:--------------------------------|8-----7-----5-------------------|


e:--------------------------------|--------------------------------|
b:--------------------------------|--------------------------------|
g:--------------------------------|--------------------------------|
d:--------------------------------|--------------------------------|
a:8-----7-----3-------------------|3-----2-----0-------------------|
d:8-----7-----3-------------------|3-----2-----0-------------------|


Guitar Chords 2:

e:--------------------------------|--------------------------------|
b:--------------------------------|--------------------------------|
g:------5-------------------------|--------------------------------|
d:7-----3-----5-------------------|--------------------------------|
a:5-----------3-------------------|8-----7-----5-------------------|
d:--------------------------------|8-----7-----5-------------------|


e:--------------------------------|--------------------------------|
b:--------------------------------|--------------------------------|
g:------5-----7-----5-----3/5\3---|--------------------------------|
d:7-----3-----5-----3-----2/3\2---|7-----5-------------------------|
a:5-------------------------------|5-----3-----7-------------------|
d:--------------------------------|------------7-------------------|


e:--------------------------------|--------------------------------|
b:--------------------------------|--------------------------------|
g:--------------------------------|--------------------------------|
d:--------------------------------|--------------------------------|
a:8-----7-----5-------------------|8-----7-----3-------------------|
d:8-----7-----5-------------------|8-----7-----3-------------------|


e:--------------------------------|--------------------------------|
b:--------------------------------|--------------------------------|
g:--------------------------------|--------------------------------|
d:--------------------------------|--------------------------------|
a:8-----7-----5-----3-----2/3\2---|0-------------------------------|
d:8-----7-----5-----3-----2/3\2---|0-------------------------------|


Guitar Riff 3:

e:--------------------------------|--------------------------------|
b:--------------------------------|--------------------------------|
g:--------------------------------|--------------------------------|
d:--------------------------------|--------------------------------|
a:0-----0-------------------------|0-----0-------------------------|
d:0-----0-------------------------|0-----0-------------------------|


Guitar Chords 4:

e:--------------------------------|--------------------------------|
b:--------------------------------|--------------------------------|
g:------5-------------------------|--------------------------------|
d:7-----3-----5-------------------|--------------------------------|
a:5-----------3-------------------|8-----7-----5-------------------|
d:--------------------------------|8-----7-----5-------------------|


e:--------------------------------|--------------------------------|
b:--------------------------------|--------------------------------|
g:------5-----7-----5-----3/5\3---|--------------------------------|
d:7-----3-----5-----3-----2/3\2---|7-----5-------------------------|
a:5-------------------------------|5-----3-----7-------------------|
d:--------------------------------|------------7-------------------|


e:--------------------------------|--------------------------------|
b:--------------------------------|--------------------------------|
g:--------------------------------|--------------------------------|
d:--------------------------------|--------------------------------|
a:8-----7-----5-------------------|8-----7-----5-------------------|
d:8-----7-----5-------------------|8-----7-----5-------------------|


e:--------------------------------|--------------------------------|
b:--------------------------------|--------------------------------|
g:--------------------------------|--------------------------------|
d:--------------------------------|--------------------------------|
a:8-----7-----3-------------------|--------------------------------|
d:8-----7-----3-------------------|--------------------------------|


"Sleeping Mommy":

e:--------------------------------|--------------------------------|
b:--------------------------------|--------------------------------|
g:--------------------------------|--------------------------------|
d:--------------------------------|--------------------------------|
a:0-2---3---------0-2---3---------|0-2---3-----2---0---------------|
d:0-2---3---------0-2---3---------|0-2---3-----2---0---------------|


"Don't Go Out Again And Disappear":

e:--------------------------------|--------------------------------|
b:--------------------------------|--------------------------------|
g:--------------------------------|--------------------------------|
d:--------------------------------|--------------------------------|
a:------------------------2/3\2---|0-----0---------0-----0---------|
d:------------------------2/3\2---|0-----0---------0-----0---------|

e:--------------------------------|--------------------------------|
b:--------------------------------|--------------------------------|
g:--------------------------------|--------------------------------|
d:----------------0---------------|--------------------------------|
a:0-----0---------0---------------|0-----0---------0-----0---------|
d:0-----0---------0---------------|0-----0---------0-----0---------|

e:--------------------------------|--------------------------------|
b:--------------------------------|--------------------------------|
g:--------------------------------|--------------------------------|
d:----------------5---------------|5-4---3-2---2-1-----------------|
a:0-----0---------3---------------|------------------5-4---3---2---|
d:0-----0-------------------------|------------------------3---2---|

e:--------------------------------|
b:--------------------------------|
g:--------------------------------|
d:--------------------------------|
a:1-0---0-------------------------|
d:1-0---0-------------------------|


albums
tabs

 

1