Search tabs:
Browse artists: 0-9 | A | B | C | D | E | F | G | H | I | J | K | L | M | N | O | P | Q | R | S | T | U | V | W | X | Y | Z
/ / / guitar tab

Tuning: eb Bb Gb Db Ab Eb

I have looked at many tabs of this song and no one includes the guitar part!
So here it is, the best I could figure out with guitar part included, you will probably be better if you have a foot pedal for this so you can switch between distortion and clean tone.

Bass Line:
e--------------------
B--------------------
G--------------------
D--------------------	
A-7---5-------------
E---7---7-7-7-5-3---

Distorted Part:
e6-s-5------
B6-s-5------
G6-s-5------
D------------	
A-----------
E-----------

Repeat Above Three Times then play once:
e-------------------------
B-------------------------
G-------------------------
D------------------------	-
A-7-7-7-5-5--------------
E------------7-7-7-7-5-3-


albums
tabs

 

1