Search tabs:
Browse artists: 0-9 | A | B | C | D | E | F | G | H | I | J | K | L | M | N | O | P | Q | R | S | T | U | V | W | X | Y | Z
/ Sum 41 / All Killer No Filler (2001) / Heart Attack guitar tab

Author/Artist: Sum41
Title: Heartattack
Album: All Killer No Filler
Transcribed by: Trish
Email: sexy_shrine@hotmail.com

some parts may be missing, and some parts are repeated and i didn't write out the actual beats or whatever for the power chords, but it's not that hard to figure out. just listen to the song, it's awesome

-------2---------------2---------------2---------------2----------------------
---2-------2---2---2-------2---2---2-------2---2---2-------2--2---------------
------------------------------------------------------------------------------
-4---4---4---4---3---3---3---3---2---2---2---2---2---2---2--2-----------------
------------------------------------------------------------------------------
------------------------------------------------------------------------------
                                                                              

------------------------------------------------------------------------------
------------------------------------------------------------------------------
-6------6-------------6-----6-------------------------------------------------
-4------3------4------4-----3------4------6-----------------------------------
---------------2-------------------2------4-----------------------------------
------------------------------------------------------------------------------
                                                                              

------------------------------------------------------------------------------
------------------------------------------------------------------------------
----------------------------------6---6----3-----------6--6--3----------------
------------4---------6-----4-----4---3----1-----------4--3--1----------------
--4----2----2----4----4-----2-----------------1-2-1-2-----------1-2-1-2-4-----
--2----0---------2------------------------------------------------------------
                                                                              

------------------------------------------------------------------------------
---7--------------------------------------------------------------------------
---x--------------------------------------------------------------------------
---4-----------------4--------------------------------------------------------
-------------4---2---2--2---1-2-1---------------------------------------------
-------------2---0------0---------2-------------------------------------------
            second guitar


Sum 41 albums
2004 Chuck
2002 Does This Look Infected?
2001 All Killer No Filler
2000 Half Hour Of Power
All Killer No Filler tabs
01Intro tabbass tab
02Nothing On My Back tabbass tab
03Never Wake Up tabbass tab
04Fat Lip tabbass tab
05Rhythms tabbass tab
06Motivation tabbass tab
07In Too Deep tabbass tab
08Summer tabbass tab
09Handle This tabbass tab
10Crazy Amanda tabbass tab
11All She's Got tabbass tab
12Heart Attack tabbass tab
13Pain For Pleasure tabbass tab

 

1