Search tabs:
Browse artists: 0-9 | A | B | C | D | E | F | G | H | I | J | K | L | M | N | O | P | Q | R | S | T | U | V | W | X | Y | Z
/ Sum 41 / All Killer No Filler (2001) / Intro guitar tab

Sum 41 - Intro
Tabbed By: sumguitarist99
Email: punkx09@aol.com

Tuning: Half Step Down (Eb Ab Db Gb Bb Eb)

Listen to the song to get how to play this, there is piano it sounds like playing
some chords in the background

Guitar 1
Eb|--------------------------------------------------------|
Bb|--------------------------------------------------------|
Gb|---------------------------------9--9--9-------2--0--------|
Db|-----9-10-9----------------------9--10-9-------0--0--4------|
Ab|-7---7--7-7-------9----10--------7--7--7-------------5---------|
Eb|-0----------------0----0-----8----------------------------------------|

Guitar 2
Eb|-----------------------------------------------2---------------------|
Bb|---------------------------------3--5--3-------3-----3----|
Gb|-----------------------------4-----------------2-----2-----|
Db|-----------------------------5-----------------0-----0--|
Ab|-----------------------------3-------------------------------|
Eb|-0-------------------------------------------------------|


Guitar 1
Eb|-----------------------------------------------------------|
Bb|-----0-1-0-------0----0------------------------10---8--7---------------|
Gb|-----0-2-0-------X----X--------9--9--9---------7----7--7-------------|
Db|-2---2-2-2-------7----9--------9--10-9---------0----0--0------------|
Ab|-2---------------9----10-------7--7--7-------------------------|
Eb|-0---------------0----0----8-----------------------------------|

Guitar 2
Eb|-0---------------0-------------------------------------3----------|
Bb|-0---------------0-------------3-5-3-----------2-------2--------------------|
Gb|-0---------------0---------4-------------------3-------3-------|
Db|-2---------------2---------5-------------------0-------0---|
Ab|-2---------------2---------3-------------------------------------|
Eb|-0---------------0----------------------------------------------------|

Reapeat all of above, then listen to song when to play the
stuff below.

Guitar 3 (Clean)
Eb|------------------------------|--------------------------------------|
Bb|------------------------------|-----------12----------------|
Gb|-----------9-11-9-11b12r11----|----9/12------12---------------------------|
Db|---9-10-12--------------------|-----------------9-----------|
Ab|------------------------------|-----------------------------|
Eb|------------------------------|--------------------------------------|

Eb|---------------------|--------------------------------------|
Bb|---------------------|-------------9-11-9-11b12r11---------------------|
Gb|-12\11/12---12/14----|-----9-10-12--------------------------|
Db|---------------------|---------------------------------------------|
Ab|---------------------|--------------------------------------|
Eb|---------------------|--------------------------------------|

Eb|---------------------|--------------------------------------|
Bb|-------12------------|-----12\11/12---12/14-------------------------|
Gb|-9/12-----12---------|--------------------------------------|
Db|-------------9-------|----------------------------------------|
Ab|---------------------|--------------------------------------|
Eb|---------------------|--------------------------------------|

thats about it, this sounds really close, rate this and ill send more CHUCK
tabs in!


Sum 41 albums
2004 Chuck
2002 Does This Look Infected?
2001 All Killer No Filler
2000 Half Hour Of Power
All Killer No Filler tabs
01Intro tabbass tab
02Nothing On My Back tabbass tab
03Never Wake Up tabbass tab
04Fat Lip tabbass tab
05Rhythms tabbass tab
06Motivation tabbass tab
07In Too Deep tabbass tab
08Summer tabbass tab
09Handle This tabbass tab
10Crazy Amanda tabbass tab
11All She's Got tabbass tab
12Heart Attack tabbass tab
13Pain For Pleasure tabbass tab

 

1