Search tabs:
Browse artists: 0-9 | A | B | C | D | E | F | G | H | I | J | K | L | M | N | O | P | Q | R | S | T | U | V | W | X | Y | Z
/ Sum 41 / All Killer No Filler (2001) / Never Wake Up guitar tab

Song: Never Waking Up
Artist: Sum 41
Album: All Killer No Filler
As tabbed by Joe Muggah

Verse A (Guitar 1)
e---------------------------------------------------------
B---------------------------------------------------------
G-------9-9---------11-11--------9-9---------11-11--------
D--6-6--9-9--11-11--11-11---6-6--9-9--11-11--11-11--------
A--6-6--7-7--11-11---9--9---6-6--7-7--11-11---9--9--------
E--4-4--------9--9----------4-4--------9--9---------------
("Blah blah blah...")

Verse B (Guitar 2)
e---------------------------------------------------------
B---------------------------------------------------------
G--13-13-13---13-13-13---13-13-13---11-11-11--------------
D---x--x--x----x--x--x----x--x--x---x--x--x---------------
A--11-11-11---11-11-11---11-11-11---9--9--9---------------
E---------------------------------------------------------

Chorus
e---------------------------------------------------------
B---------------------------------------------------------
G--4-4-4-4-4-4-4-4---------------------------7----------7-
D--4-4-4-4-4-4-4-4--4-4-4-4-4-4-4-4--2-2-2-2-x--2-2-2-2-x-
A--2-2-2-2-2-2-2-2--4-4-4-4-4-4-4-4--2-2-2-2-5--2-2-2-2-5-
E-------------------2-2-2-2-2-2-2-2--0-0-0-0----0-0-0-0---
("I feel like never waking up...")

Outro
e---------------------------------------------------------
B---------------------------------------------------------
G---------------------------------------------------------
D--2-2-2-2-2-2-2-2-2--------------------------------------
A--2-2-2-2-2-2-2-2-2--------------------------------------
E--0-0-0-0-0-0-0-0-0--------------------------------------

Verse A
Verse A, B
Chorus
Verse A
Verse A, B
Chorus
Outro


Sum 41 albums
2004 Chuck
2002 Does This Look Infected?
2001 All Killer No Filler
2000 Half Hour Of Power
All Killer No Filler tabs
01Intro tabbass tab
02Nothing On My Back tabbass tab
03Never Wake Up tabbass tab
04Fat Lip tabbass tab
05Rhythms tabbass tab
06Motivation tabbass tab
07In Too Deep tabbass tab
08Summer tabbass tab
09Handle This tabbass tab
10Crazy Amanda tabbass tab
11All She's Got tabbass tab
12Heart Attack tabbass tab
13Pain For Pleasure tabbass tab

 

1