Search tabs:
Browse artists: 0-9 | A | B | C | D | E | F | G | H | I | J | K | L | M | N | O | P | Q | R | S | T | U | V | W | X | Y | Z
/ The Cranberries / Bury the Hatchet (1999) / Promises guitar tab

Artist: The Cranberries
Song: Promises
Album: Bury The Hatchet
Tabbed By: PePPoS

Standard Tuning

Intro --> 1st Guitar --> Clean
         Em                Bm                 D                  C
|----0--0--0--0----|-----2--2--2-----|----2--2--2--3----|-----0--0--0-----|
|----0--0--0--0----|-----3--3--3-----|----3--3--3--3----|-----1--1--1-----|
|----0--0--0--0----|-----4--4--4-----|----2--2--2--2----|-----0--0--0-----|
|----2--2--2--2----|-----4--4--4-----|----0--0--0--0----|-----2--2--2-----|
|----2--2--2--2----|-----2--2--2-----|------------------|-----3--3--3-----|
|----0--0--0--0----|-----------------|------------------|-----------------|
         Em                Bm                 D                  C
|----0--0--0--0----|-----2--2--2-----|----2--2--2--3----|-----0~----------|
|----0--0--0--0----|-----3--3--3-----|----3--3--3--3----|-----1~----------|
|----0--0--0--0----|-----4--4--4-----|----2--2--2--2----|-----0~----------|
|----2--2--2--2----|-----4--4--4-----|----0--0--0--0----|-----2~----------|
|----2--2--2--2----|-----2--2--2-----|------------------|-----3~----------|
|----0--0--0--0----|-----------------|------------------|-----------------|

Verse --> 1st Guitar --> Distorted --> x4
                  E                                       B
|------------------------------------|------------------------------------|
|------------------------------------|------------------------------------|
|-9--9---9--9--9---9--9--9---9--9--9-|------------------------------------|
|-9--9---9--9--9---9--9--9---9--9--9-|-9--9---9--9--9---9--9--9---9--9--9-|
|-7--7---7--7--7---7--7--7---7--7--7-|-9--9---9--9--9---9--9--9---9--9--9-|
|------------------------------------|-7--7---7--7--7---7--7--7---7--7--7-|
                  D                                       C
|------------------------------------|------------------------------------|
|------------------------------------|------------------------------------|
|-7--7---7--7--7---7--7--7---7--7--7-|-5--5---5--5---5--5---5--5----5---5-|
|-7--7---7--7--7---7--7--7---7--7--7-|-5--5---5--5---5--5---5--5----5---5-|
|-5--5---5--5--5---5--5--5---5--5--5-|-3--3---3--3---3--3---3--3----3---3-|
|------------------------------------|------------------------------------|

Verse --> 2nd Guitar --> Clean --> x4 (Play This Riff Under The B and the D)
                  B                                    D
|------2------------2-------------2--|-----2---------2----------3---2---0-|
|----------3-------------3-----------|--------3----------3----------------|
|--4-----------4-------------4-------|-2----------2----------2------------|
|------------------------------------|------------------------------------|
|------------------------------------|------------------------------------|
|------------------------------------|------------------------------------|

Chorus --> 1st Guitar --> Distorted --> Same as Verse --> x2

Chorus --> 2nd Guitar --> Distorted --> x2
                 E                                       B
|------------------------------------|------------------------------------|
|------------------------------------|------------------------------------|
|-9--9--9--9--9--9--9--9--9--9--9--9-|------------------------------------|
|-9--9--9--9--9--9--9--9--9--9--9--7-|-9--9--9--9--9--9--9--9--9--9--9--9-|
|-7--7--7--7--7--7--7--7--7--7--7--7-|-9--9--9--9--9--9--9--9--9--9--9--9-|
|------------------------------------|-7--7--7--7--7--7--7--7--7--7--7--7-|
                  D                                       C
|------------------------------------|------------------------------------|
|------------------------------------|------------------------------------|
|-7--7--7--7--7--7--7--7--7--7--7--7-|-5--5---5--5---5--5---5--5----5---5-|
|-7--7--7--7--7--7--7--7--7--7--7--7-|-5--5---5--5---5--5---5--5----5---5-|
|-5--5--5--5--5--5--5--5--5--5--5--7-|-3--3---3--3---3--3---3--3----3---3-|
|------------------------------------|------------------------------------|

Post-Chorus --> 1st and 2nd Guitar --> Distorted
      E            B            D                        C
|------------|------------|------------|------------------------------------|
|------------|------------|------------|------------------------------------|
|-----9~-----|------------|-----7~-----|-5--5---5--5---5--5---5--5----5---5-|
|-----9~-----|-----9~-----|-----7~-----|-5--5---5--5---5--5---5--5----5---5-|
|-----7~-----|-----9~-----|-----5~-----|-3--3---3--3---3--3---3--3----3---3-|
|------------|-----7~-----|------------|------------------------------------|

Verse 1st Guitar x3  <-->  Verse 2nd Guitar x3

Chorus --> 1st Guitar --> Distorted --> x5

Chorus --> 2nd Guitar --> Distorted --> x2 and then Play This Riff
            C                             E                       B
|--7-7-7-7-7-7-7--5------0--|--7-7-7-7-7-7--5---------|--7-7-7-7-7-7--5--------|
|--------------------8------|-------------------8--7--|-------------------8-7--|
|---------------------------|-------------------------|------------------------|
|---------------------------|-------------------------|------------------------|
|---------------------------|-------------------------|------------------------|
|---------------------------|-------------------------|------------------------|
            D                             C
|-----8-8-8-8-8-8-7-5-0-----|--7-7-7-7-7-7-7--5-----0-|
|---------------------------|--------------------8----|
|---------------------------|-------------------------| then play normal Chorus
|---------------------------|-------------------------| and then repeat the C Riff
|---------------------------|-------------------------|
|---------------------------|-------------------------|

Solo --> 1st Guitar --> Distorted
                 E                                       B
|------------------------------------|------------------------------------|
|------------------------------------|------------------------------------|
|-9--9--9--9--9--9--9--9--9--9--9--9-|------------------------------------|
|-9--9--9--9--9--9--9--9--9--9--9--7-|-9--9--9--9--9--9--9--9--9--9--9--9-|
|-7--7--7--7--7--7--7--7--7--7--7--7-|-9--9--9--9--9--9--9--9--9--9--9--9-|
|------------------------------------|-7--7--7--7--7--7--7--7--7--7--7--7-|
                  D                                       C
|------------------------------------|------------------------------------|
|------------------------------------|------------------------------------|
|-7--7--7--7--7--7--7--7--7--7--7--7-|-5--5---5--5---5--5---5--5----5---5-|
|-7--7--7--7--7--7--7--7--7--7--7--7-|-5--5---5--5---5--5---5--5----5---5-|
|-5--5--5--5--5--5--5--5--5--5--5--7-|-3--3---3--3---3--3---3--3----3---3-|
|------------------------------------|------------------------------------|

 This Riff is Repeat Twice
      E            B            D                        C
|------------|------------|------------|------------------------------------|
|------------|------------|------------|------------------------------------|
|-----9~-----|------------|-----7~-----|-5--5---5--5---5--5---5--5----5---5-|
|-----9~-----|-----9~-----|-----7~-----|-5--5---5--5---5--5---5--5----5---5-|
|-----7~-----|-----9~-----|-----5~-----|-3--3---3--3---3--3---3--3----3---3-|
|------------|-----7~-----|------------|------------------------------------|

Solo --> 2nd Guitar --> Distorted
             D                       C
|-3-0-0-3-0-0-3-0-0-3-0-0-|-5-0-0-5-0-0-5-0-0-5-0-0|
|-------------------------|------------------------|
|-------------------------|------------------------|
|-------------------------|------------------------|
|-------------------------|------------------------|
|-------------------------|------------------------|
             E                       B
|--7-7-7-7-7-7--5---------|--7-7-7-7-7-7--5--------|  _
|-------------------8--7--|-------------------8-7--|   |
|-------------------------|------------------------|   |
|-------------------------|------------------------|   |
|-------------------------|------------------------|   |
|-------------------------|------------------------|   |
            D                             C            |  x2
|----8-8-8-8-8-8-7-5-0----|-7-7-7-7-7-7-7--5-----0-|   |
|-------------------------|-------------------8----|   |
|-------------------------|------------------------|   |
|-------------------------|------------------------|   |
|-------------------------|------------------------|  _|
|-------------------------|------------------------|

End --> 1st and 2nd Guitar --> Distorted
|--0~----------|
|--0~----------|
|--0~ let ring |
|--2~----------|
|--2~----------|
|--0~----------|

I think this tab is 100%PERFECT! So if you like Rate it!!!


The Cranberries albums
2001 Wake Up and Smell the Coffee
1999 Bury the Hatchet
1996 To the Faithful Departed
1994 No Need To Argue
1993 Everybody Else Is Doing It, So Why Can't We?
Bury the Hatchet tabs
01Animal Instinct tabbass tab
02Loud and Clear tabbass tab
03Promises tabbass tab
04You and Me tabbass tab
05Just My Imagination tabbass tab
06Shattered tabbass tab
08Saving Grace tabbass tab
09Copycat tabbass tab
10What's on My Mind tabbass tab
11Delilah tabbass tab
12Fee Fi Fo tabbass tab
13Dying in the Sun tabbass tab

 

1