Search tabs:
Browse artists: 0-9 | A | B | C | D | E | F | G | H | I | J | K | L | M | N | O | P | Q | R | S | T | U | V | W | X | Y | Z
/ / / guitar tab

The Cure
Watching Me Fall
Bloodflowers
tabbed by carl
standard tunning

|3h-5| The h stands for hammer on,
and it means to hammer onto 5.

|5f-3| The f stands for hammer off,
and it means to hammer off of 5.

|7b(8)| The b stands for bend note, and
you bend the pitch to the note thats in
these ( ).

|-##-| The #\'s stand for pick slide.

|-6~-| The ~ means vibrato on the note befor it.

|8p-7| The p stands for pull off, so you
pull 8 and let off to 7.





     Main opening riff
|----------------|
|------------3---|
|---------5------|
|------3---------|
|---5------------|
|----------------|


guitar 1                                                guitar 2
|----------------------------------------------------------||------------------------------|
|----------------------------------------------------------||------6--10--8*---------------|
|----------------------------------------------------------||---7--------------------------|
|---6b(7)--3p-0-0----------7---------2-----------------3---||------------------#########---|
|------------------0-3h-5h---0-3h-5h---0-3h-5h--03h-5h-----||------------------#########---|
|----------------------------------------------------------||------------------------------|

second part
when Robert says \"I\'ve been driften around for hours!\"
|---------------------------------------------|
|---------------------------------------------|do this once with the hammer on and offs and again with
|---------------------------------------------|little chicken picks and switch back and forth, it helps if you
|---------------------------------------------|listen real close to this part of the song. looks hard but its so
|---0-3H- (5Hh) -3h-0--0-3H-5Hh-3h-0-0-3h-5---|easy. do this until the chorus begins end it with a pck slide
|----right when you hammer onto---------------|         ##############################################
     5, hammer off in one motion

chorus (make it sound a little messy)
|---3--3--3-3333/-5--5-5555/-6--6-6666/-8--8\\-3-3-3333-1-1-1111/-3-3-3333-1-1---|
|---3--3--3-3333/-5--5-5555/-6--6-6666/-8--8\\-3-3-3333-1-1-1111/-3-3-3333-1-1---|
|---3--3--3-3333/-5--5-5555/-6--6-6666/-8--8\\-3-3-3333-1-1-1111/-3-3-3333-1-1---| do this twice
|-----------------------------------------------------------------------------------|
|-----------------------------------------------------------------------------------|
|-----------------------------------------------------------------------------------|

after chorus
|--------------------------------------------------------|
|--------------------------------------------------------| do this like two more times
|--------------------------------------------------------|
|-------------------------------------5-5~3~0--5-5~3~0---|
|---0-3H-4H-5H--0-3H- (5H~0) -0-3H-5H--------------------|
|------once you\'ve hammered onto 5, without waisting-----|
|a second, pull off 5 so you leave the string open and continue


     If you notice the hole song is mainly bass drums and vocals so this is about the first five minuts
     i\'m positive its all right it just depends on whether you understand the hammer ons and pull offs and
     stuff i\'m working hard on tabing out the solo later i will add it and make a few things more clear
     for now all i can say is listen very closley to the song and feel free to leave corrections!


albums
tabs

 

1