Search tabs:
Browse artists: 0-9 | A | B | C | D | E | F | G | H | I | J | K | L | M | N | O | P | Q | R | S | T | U | V | W | X | Y | Z
/ / / guitar tab

e---------------------------------------------------------------------
B-0-0-0-0-0-0-0-0-0-0-0-0-0-0-0-0-0-0-0-0-0-0-0-0-0-0-0-0-0-0-0-0-0-0-
G-7-7-7-7-7-7-7-7-5-5-4-4-4-4-2-2-2-2-7-7-7-7-7-7-9-9-2-2-2-2-0-0-0-0-
D---------------------------------------------------------------------
A---------------------------------------------------------------------
E---------------------------------------------------------------------

THE CURE
BEFORE THREE
~=let ring


e-------------------------------------------------------------------
B-0-0-0-0-0-0-0-0-0-0-0-0-0-0-0-0-0---------------------------------
G-7-7-7-7-7-7-5-5-4-4-4-4-2-2-2-2-2-0-0-0-0-0-0-0-0-0-0-0-0---------
D-----------------------------------4-4-4-4-4-4-2-2-0-0-0-0-0-0-0-0-
A----------------------------------------------------------3-3-3-3-3
E-------------------------------------------------------------------



e-----
B-----
G-5-4~
D-----
A-----
E-----


albums
tabs

 

1