Search tabs:
Browse artists: 0-9 | A | B | C | D | E | F | G | H | I | J | K | L | M | N | O | P | Q | R | S | T | U | V | W | X | Y | Z
/ / / guitar tab

From: mrgreen@mullian.ee.mu.OZ.AU (matthew green)
A Night Like This.  The Cure.

Piano arranged for guitar.

Rythym A.

     F#m               D/F#              D#dim/F#          D/F#
e -------------------|-----------------|-----------------|-----------------
b ---2-2-2-2-2-2-2-2-|-3-3-3-3-3-3-3-3-|-4-4-4-4-4-4-4-4-|-3-3-3-3-3-3-3-3-
g ---2-2-2-2-2-2-2-2-|-2-2-2-2-2-2-2-2-|-2-2-2-2-2-2-2-2-|-2-2-2-2-2-2-2-2-
d ---4-4-4-4-4-4-4-4-|-4-4-4-4-4-4-4-4-|-4-4-4-4-4-4-4-4-|-4-4-4-4-4-4-4-4-
a -------------------|-----------------|-----------------|-----------------
e -------------------|-----------------|-----------------|-----------------

repeat with guitar picking on chords.


repeat for intro, and verse, with, Rythym B, on guitar with overdrive.

     F#5         F#5   D5          D5    B5          B5    D5          D5      
  -|-^-----------^---|-^-----------^---|-^-----------^---|-^-----------^---

The, "I'm coming to get you.." goes something like this.

Rythym C

     C#5         C#5   B5          B5    C#5         C#5   B5          B5
  -|-^-----------^---|-^-----------^---|-^-----------^---|-^-----------^---

     C#5         C#5   B5          B5    G#5         G#5   E5          E5
  -|-^-----------^---|-^-----------^---|-^-----------^---|-^-----------^---

Back to Rythym A and B, for second verse..  and the Rythym C again.

Then to Rythym A and B, for the sax solo, then back to Rythym C again, to..

Rythym D

     D5          D5    E5*         F#5*  F#5               F#5   G#5   A5
  -|-^-----------^---|-^-----------^---|-^---------------|-^-----^-----^---

For the "I want to change it all..", and repeat til end..

---
Transcribed by Matthew Green.
"Oh, I never wanted this.  Now everything is destroyed."

A Night Like This
-----------------

F#m              D
Say goodbye on a night like this
            B                  D
If it's the last thing we ever do
You never looked as lost as this
Sometimes it doesn't even look like you
It goes dark
It goes darker still
Please stay
But I watch you like I'm made of stone
As you walk away

    C#m                      Bm
I'm coming to find you if it takes me all night
  C#m                    Bm
A witch hunt for another girl
    C#m                Bm
For always and ever is always for you
     G#m                       E
Your trust the most gorgeously stupid thing
       F#m                D  B  D
I ever cut in the world

Say hello on a day like today
Say it everytime you move
The way that you look at me now
Makes me wish I was you
It goes deep
It goes deeper still
This touch
And the smile and the shake of your head

I'm coming to find you if it takes me all night
Can't stand here like this anymore
For always and ever is always for you
I want it to be perfect
Like before

D     Bm           F#m           F#m F#m/G# F#m/A
Oh oh oh I want to change it all
D     Bm           F#m
Oh Oh Oh I want to change


This is the keyboard part written for guitar. You could use it as an intro.
(Thanks to matthew green )

     F#m               D/F#              D#dim/F#          D/F#
e -------------------|-----------------|-----------------|-----------------
b ---2-2-2-2-2-2-2-2-|-3-3-3-3-3-3-3-3-|-4-4-4-4-4-4-4-4-|-3-3-3-3-3-3-3-3-
g ---2-2-2-2-2-2-2-2-|-2-2-2-2-2-2-2-2-|-2-2-2-2-2-2-2-2-|-2-2-2-2-2-2-2-2-
d ---4-4-4-4-4-4-4-4-|-4-4-4-4-4-4-4-4-|-4-4-4-4-4-4-4-4-|-4-4-4-4-4-4-4-4-
a -------------------|-----------------|-----------------|-----------------
e -------------------|-----------------|-----------------|-----------------


F#m: 244222   D: xx0232   B: x24442   F#m/G#: 444222   F#m/A: x04222
C#m: x46654   Bm: x24432   G#m: 466444   E: 022100




~From: winston campbell 


albums
tabs

 

1