Search tabs:
Browse artists: 0-9 | A | B | C | D | E | F | G | H | I | J | K | L | M | N | O | P | Q | R | S | T | U | V | W | X | Y | Z
/ The Cure / Staring At The Sea (The Singles) (1986) / A Night Like This guitar tab

The Cure (Staring at the Sea - the Singles)

A NIGHT LIKE THIS - tabbed by Matthew Green and solo by David Larson 


This is the keyboard part written for guitar. You could use it as an intro.
(Thanks to matthew green )

     F#m               D/F#              D#dim/F#          D/F#
e -------------------|-----------------|-----------------|-----------------
b ---2-2-2-2-2-2-2-2-|-3-3-3-3-3-3-3-3-|-4-4-4-4-4-4-4-4-|-3-3-3-3-3-3-3-3-
g ---2-2-2-2-2-2-2-2-|-2-2-2-2-2-2-2-2-|-2-2-2-2-2-2-2-2-|-2-2-2-2-2-2-2-2-
d ---4-4-4-4-4-4-4-4-|-4-4-4-4-4-4-4-4-|-4-4-4-4-4-4-4-4-|-4-4-4-4-4-4-4-4-
a -------------------|-----------------|-----------------|-----------------
e -------------------|-----------------|-----------------|-----------------


F#m: 244222   D: xx0232   B: x24442   F#m/G#: 444222   F#m/A: x04222
C#m: x46654   Bm: x24432   G#m: 466444   E: 022100

repeat for intro, and verse, with, Rythym B, on guitar with overdrive.

     F#5         F#5   D5          D5    B5          B5    D5          D5      
  -|-^-----------^---|-^-----------^---|-^-----------^---|-^-----------^---

The, "I'm coming to get you.." goes something like this.

Rythym C

     C#5         C#5   B5          B5    C#5         C#5   B5          B5
  -|-^-----------^---|-^-----------^---|-^-----------^---|-^-----------^---

     C#5         C#5   B5          B5    G#5         G#5   E5          E5
  -|-^-----------^---|-^-----------^---|-^-----------^---|-^-----------^---

Back to Rythym A and B, for second verse..  and the Rythym C again.

Then to Rythym A and B, for the sax solo, then back to Rythym C again, to..

Rythym D

     D5          D5    E5*         F#5*  F#5               F#5   G#5   A5
  -|-^-----------^---|-^-----------^---|-^---------------|-^-----^-----^---

For the "I want to change it all..", and repeat til end..

============

Solo tabbed by David Larson

e:---------------------------------------------------------------------------|
B:--------------------------------13--15--15--13--15-------------------------|
G:--12---14--15--12---14--15--15----------------------12---12-12-12---14--15-|
D:---------------------------------------------------------------------------|
A:---------------------------------------------------------------------------|
E:---------------------------------------------------------------------------|


e:---------------------------------------------------------------------------|
B:-15---13--13--15-----------------------------------------------------------|
G:-15----------------12--12---13--15--13--12-----------------------------12--|
D:---------------------------------------------12---12--12--13--12--14-------|
A:---------------------------------------------------------------------------|
E:---------------------------------------------------------------------------|


e:----------------------------------13------15-----15------15----------------|
B:------------------13--13--15--15------15------15-----15------15---13--13---|
G:12--12--14--15-------------------------------------------------------------|
D:---------------------------------------------------------------------------|
A:---------------------------------------------------------------------------|
E:---------------------------------------------------------------------------|


e:15------13-----------------------------------------------------------------|
B:----13------13---13--15--15--15--15--13--15--------------------------------|
G:---------------------------------------------12---12--14--15---12--14--15--|
D:---------------------------------------------------------------------------|
A:---------------------------------------------------------------------------|
E:---------------------------------------------------------------------------|


e:-------------------------------------------------------------------------|
B:-------------------------------------------------------------------------|
G:-15--15--15---14---12----------------------------------------------------|
D:------------------------12----12-/-\-/-\-/-\-/-\---12--/-\-/-\-/-\-------|
A:-------------------------------------------------------------------------|
E:-------------------------------------------------------------------------|


The Cure albums
2004 The Cure
2000 Bloodflowers
1996 Wild Mood Swings
1992 Wish
1989 Disintegration
1987 Kiss Me, Kiss Me, Kiss Me
1986 Staring At The Sea (The Singles)
1985 Head on the Door
1984 Japanese Whispers
1982 Pornography
1981 Faith
1980 Boys Don't Cry
1980 Seventeen Seconds
1979 Three Imaginary Boys
Staring At The Sea (The Singles) tabs
01Killing An Arab tabbass tab
0210:15 Saturday Night tabbass tab
03Boys Don't Cry tabbass tab
04Jumping Someone Else's Train tabbass tab
05A Forest tabbass tab
06Play For Today tabbass tab
07Primary tabbass tab
08Other Voices tabbass tab
09Charlotte Sometimes tabbass tab
10The Hanging Garden tabbass tab
11Let's Go To Bed tabbass tab
12The Walk tabbass tab
13The Lovecats tabbass tab
14The Caterpillar tabbass tab
15In Between Days tabbass tab
16Close To Me tabbass tab
17A Night Like This tabbass tab

 

1