Search tabs:
Browse artists: 0-9 | A | B | C | D | E | F | G | H | I | J | K | L | M | N | O | P | Q | R | S | T | U | V | W | X | Y | Z
/ / / guitar tab

Pixies - Trompe le Monde
Tabbed By: Drain
Email: Emjack2253364381@aol.com

Tuning: Standard (E A D G B E)

This is such a hard song to play!!!

Badd4:		F#7add4
-0--         -0--
-0--         -0--
-8--         -3--
-9--         -4--
-9--         -4--
-7--         -2--

INTRO:

  Guitar 1
|-9-8-7---------------9-8-7-------------------------|
|-7-----8-------------7-----8-8-7-------------------|
|-7-------------------7-----------------------------|
|-7-------------------7-----------------------------|
|---------------------------------------------------|
|---------------------------------------------------|
| Guitar 2                                          |
|---------------------------------------------------|
|---------------------------------------------------|
|---------------6--4-------------------7--3---------|
|-------------6----5-----------------7----4---------|
|-----------4------5---------------5------4---------|
|------------------3----------------------2---------|

  Guitar 1
|-----10--------------------------------------------|
|------9-----------6--------------------------------|
|----9-------------7--------------------------------|
|--9-------------7----------------------------------|
|--------------5------------------------------------|
|---------------------------------------------------|
| Guitar 2                                          |
|---------5-----------5-----------------------------|
|---------6-----------5-----------------------------|
|---------7-----------6-----------------------------|
|---------7-----------7-----------------------------|
|---------5-----------7-----------------------------|
|---------------------5-----------------------------|

E F F#7add4[???]

F#  B   Bm    F#  B  Bm
Why do cupids and angels Con-
F#  B   Bm    F#       D
tin-u-al-ly haunt her dreams like
B      D   F#  B  Bm   F#
mem-o-ries of another life
B  Bm      F#      D          Badd4
is painted on her shirt in capitals.
G              E        G
Out on the free freeway there's only
D            B         D     B   A      G
she and the they represented by their lights

[Bridge: Spoken]

    Bm          G         C#               G
We went to the store and bought something great
      Bm            G         D           F#
which samples this song from Washington state.

Em  F#m   Dm   A   E F F#7add4
[Instumental part]

Go little record go.  It is named
by some guy named Joe. And the words are the
letters of the words said electrically played
for outer space and those who paid.
This song is twice occurred and nows it's
time to go away on holiday.


albums
tabs

 

1