Search tabs:
Browse artists: 0-9 | A | B | C | D | E | F | G | H | I | J | K | L | M | N | O | P | Q | R | S | T | U | V | W | X | Y | Z
/ Therapy? / High Anxiety (2003) / If It Kills Me guitar tab

Band: Therapy
Song: If it kills me
Tabbed by: Marre

It is a very good song of  a very good band. It is the same riff but the rhythm changes constantly. Listen to the song and you will hear this is correct.    ENJOY


(This is the main riff)
E----------------------------------- -----------------------------------------------------------------
B---------------------------- -----------------------------------------------------------------------
G----------------------------------- -----------------------------------------------------------------
D------3--3--3---3---3--3---3---3--3---3--3- -3---3---3----------------------------------------
A------5--5--5---5---5--5---5---5--5---5--5---5- -5---5----------------------------------------
E---------------------------- -----------------------------------------------------------------------

E----------------------------------- ------------------------------------------------------------------
B---------------------------- -------------------------------------------------------------------------
G----------------------------------- ------------------------------------------------------------------
D----------------------------------- -----------------8----8----8---8---8---8---8---8--------------
A-------6--- 6-- 6-- 6--- 6---6-- 6---6------ -----   6----6----6---6---6---6---6---6--------------
E-------4--- 4-- 4-- 4--- 4---4-- 4---4---------------- ---------------------------------------------

After the sentence: “LIFT ME UP SO I CAN REACH IT”

(repeat as much as necessary)
E--------------------------------------------------------- --------------------------------
B--------------------------------------------------------- --------------------------------
G--------------------------------------------------------- --------------------------------
D-------3-------------------8----8----8---8---8---8---8---8-----------------------------
A-------5-------6---------- 6----6----6---6---6-- 6-- 6---6---------------------------
E---------------4----------------------------------------- --------------------------------

(Play the main riff again)

E----------------------------------- -----------------------------------------------------------------
B---------------------------- -----------------------------------------------------------------------
G----------------------------------- -----------------------------------------------------------------
D------3--3--3---3---3--3---3---3--3---3--3- -3---3---3----------------------------------------
A------5--5--5---5---5--5---5---5--5---5--5---5- -5---5----------------------------------------
E---------------------------- -----------------------------------------------------------------------

E----------------------------------- ------------------------------------------------------------------
B---------------------------- -------------------------------------------------------------------------
G----------------------------------- ------------------------------------------------------------------
D----------------------------------- -----------------8----8----8---8---8---8---8---8--------------
A-------6--- 6-- 6-- 6--- 6---6-- 6---6------ -----   6----6----6---6---6---6---6---6--------------
E-------4--- 4-- 4-- 4--- 4---4-- 4---4---------------- ---------------------------------------------


After the sentence: “I'VE BEEN AROUND THE WORLD BUT IT'S SEEN RIGHT TROUGH ME


(repeat as much as necessary)
E--------------------------------------------------------- --------------------------------
B--------------------------------------------------------- --------------------------------
G--------------------------------------------------------- --------------------------------
D-------3-------------------8----8----8---8---8---8---8---8-----------------------------
A-------5-------6---------- 6----6----6---6---6---6---6---6---------------------------
E----------------4----------------------------------------- --------------------------------

If he starts to sing: IF IT KILLS ME

E---------------------------------------------------------------------- ---------------------
B------------------------------------------------------------------------------- -------------
G-------------------------------------------------------------------------------- ------------
D--------3---3---3---3---------------------------8----8----8---8---8---8---8---8--------
A--------5---5---5---5-------6---6---6--6------  6----6----6---6---6---6---6---6--------
E--------------------------- 4---4---4--4---------------------------------------------- ---

At the end:

E---------------------------------------------------------------------- ---------------------
B------------------------------------------------------------------------------- -------------
G-------------------------------------------------------------------------------- ------------
D---3---3---3---3--3---3---3---3---------------------------------------------------------
A---5---5---5---5--5---5---5---5----6----8----7---3--------------------------------------
E-----------------------------------4----6----5---5------------------------------ --------

SOLO:

E---------------------------------------------------------------------- ---------------------
B---------------------------------------------------------------------- ---------------------
G----13----12----10-------------------------13---12---10-------------------- --------
D-------------------------13---12---13-------------------------13---12---13----------
A---------------------------------------------------------------------- ---------------------
E---------------------------------------------------------------------- ---------------------

E---------------------------------------------------------------------- ---------------------
B---------------------------------------------------------------------- ---------------------
G----13----12----10---------------------------13------12-----16-------------------- ---
D------------------------13---12---13---------------------------------------- ------------
A---------------------------------------------------------------------- ---------------------
E---------------------------------------------------------------------- ---------------------





RIGHT AFTER SOLO:

(repeat as much as necessary)
E---------------------------------------------------------------------- ---------------------
B---------------------------------------------------------------------- ---------------------
G---------------------------------------------------------------------- ---------------------
D--------8---------8---------8----7----5--5---------------------------------- ------------
A---6----6---6---- 6--- 3----6----5----3--3-------------------------------------- ---------
E---4--------4--------- 1------------------------------------------------- -------------------


(repeat as much as necessary)
E--------------------------------------------------------- --------------------------------
B--------------------------------------------------------- --------------------------------
G--------------------------------------------------------- --------------------------------
D-------3-------------------8----8---- 8---8---8---8---8---8-----------------------------
A-------5-------6---------- 6----6-----6---6---6---6---6---6---------------------------
E---------------4----------------------------------------- --------------------------------

	
Then he starts singing again: 	IF IT KILLS ME

E---------------------------------------------------------------------- ---------------------
B------------------------------------------------------------------------------- -------------
G-------------------------------------------------------------------------------- ------------
D--------3---3---3---3---------------------------8----8----8---8---8---8---8---8--------
A--------5---5---5---5-------6---6---6--6------  6----6----6---6---6---6---6---6--------
E----------------------------4---4---4--4---------------------------------------------- ---


At the end of the song

(repeat as much as necessary)
E---------------------------------------------------------------------- ---------------------
B---------------------------------------------------------------------- ---------------------
G---------------------------------------------------------------------- ---------------------
D---------8------7-----5------------------------------------------------ ------------------
A---6-----6------5-----3--------------------------------------------------- -----------------
E---4------------------------------------------------------------------ ---------------------




If you have any questions of suggestions just mail it to me martijnbuyse@hotmail.com


Therapy? albums
2003 High Anxiety
2001 Shameless
2000 Suicide Pact: You First
1998 Semi-Detached
1995 Infernal Love
1994 Troublegum
1993 Nurse
1993 Born in a crash
High Anxiety tabs
06If It Kills Me tabbass tab

 

1