Search tabs:
Browse artists: 0-9 | A | B | C | D | E | F | G | H | I | J | K | L | M | N | O | P | Q | R | S | T | U | V | W | X | Y | Z
/ Therapy? / Suicide Pact: You First (2000) / Six Mile Water guitar tab

Therapy?
Six mile water
Suicide pact - you first

written by Therapy?
Tabbed by Jelle Peersman (peer_98@hotmail.com)
Member Superpeer

Standard Tuning


Intro + Verse :

e|----------------------------------------|
B|----------------------------------------|
G|----------------------------------------|
D|----9------9------9------9--------------|
A|-7------7------7------7-----------------|
E|----------------------------------------|


then you leave a short pause between the notes:

e|--------------|
B|--------------|
G|--------------|
D|---------9----|
A|-7------------|
E|--------------|


then comes this part:

e|------------------------------------------|
B|------------------------------------------|
G|------------------------------------------|
D|----9------9------9------9----------------|
A|-7------7------7------7----7----------7---|
E|---------------------------------10-------|


repeat this until and after :



"we come from across the border..."

e|----------------------------------------|
B|----------------------------------------|
G|----------------------------------------|
D|----------------------------------------|
A|---10-----10-------10----10-------------|
E|-8------8-------8------8----------------|



e|--------------|
B|--------------|
G|--------------|
D|-------10-----|
A|-8------------|
E|--------------|


e|----------------------------------------|
B|----------------------------------------|
G|----------------------------------------|
D|----------------------------------------|
A|---10-----10-------10----10-------------|
E|-8------8-------8------8-----8--7/8-----|


Then the chorus :

e|----------------------------------------|
B|----------------------------------------|
G|----------------------------------------|
D|--------------5--4--6--4----------------|
A|-------5--3-----------------------------|
E|-0--3-----------------------------------|

e|----------------------------------------|
B|----------------------------------------|
G|----------------------------------------|
D|-------1-----0--------------------------|
A|--3-4-----------4-3---------------------|
E|----------------------------------------|


verse comes in again few more times, figure it out


solo :

e|----------------------------------------|
B|-b12\3-(3)--1--b3--(1)------------------|
G|-----------------------4----------------|
D|----------------------------------------|
A|----------------------------------------|
E|----------------------------------------|

e|----------------------------------------|
B|-b12\3-(3)--1--b3-----------------------|
G|-------------------11/12----------------|
D|----------------------------------------|
A|----------------------------------------|
E|----------------------------------------|

e|----------------------------------------|
B|-b12\3-(3)--1--b3--(1)------------------|
G|-----------------------4----------------|
D|----------------------------------------|
A|----------------------------------------|
E|----------------------------------------|


e|----------------------------------------|
B|-b12\3-(3)--1--b3-----------------------|
G|-------------------11/12----------------|
D|----------------------------------------|
A|----------------------------------------|
E|----------------------------------------|


Second guitar plays this during the solo and outro :

e|--------------------------------------------------|
B|--------------------------------------------------|
G|-9-9-9-9-----5-5-5-5------------------------------|
D|-9-9-9-9-----5-5-5-5------5-5-5-5-5-5-5-----------|
A|-7-7-7-7-----3-3-3-3------5-5-5-5-5-5-5-----------|
E|--------------------------3-3-3-3-3-3-3-----------|

end with :

e|--------------|
B|--------------|
G|--------------|
D|--------------|
A|--5-----------|   let ring
E|--3-----------|


thats it, hope i did it well

enjoy


Therapy? albums
2003 High Anxiety
2001 Shameless
2000 Suicide Pact: You First
1998 Semi-Detached
1995 Infernal Love
1994 Troublegum
1993 Nurse
1993 Born in a crash
Suicide Pact: You First tabs
03Jam Jar Jail tabbass tab
06Six Mile Water tabbass tab
07Little Tongues First tabbass tab
11Sister tabbass tab

 

1