Search tabs:
Browse artists: 0-9 | A | B | C | D | E | F | G | H | I | J | K | L | M | N | O | P | Q | R | S | T | U | V | W | X | Y | Z
/ Therapy? / Troublegum (1994) / Knives guitar tab

Knives
Therapy?


E||------------------|------------------|----------------------|
B||------------------|------------------|----------------------|
G||------------------|------------------|----------------------|
D||------------------|------------------|--3--3--3--2----------|
A||------------------|------------------|--3--3--3--2----------|
E||------------------|------------------|--1--1--1--0----------|



------------------|----------------------|------------------|
------------------|----------------------|------------------|
------------------|----------------------|------------------|
------------------|--3--3--3--2----------|------------------|
------------------|--3--3--3--2----------|------------------|
------------------|--1--1--1--0----------|------------------|



----------------------|------------------|----------------------|
----------------------|------------------|----------------------|
----------------------|------------------|----------------------|
--3--3--3--2----------|------------------|--3--3--3--2----------|
--3--3--3--2----------|------------------|--3--3--3--2----------|
--1--1--1--0----------|------------------|--1--1--1--0----------|



------------------|-------------------------|--------------------------|
------------------|-------------------------|--------------------------|
------------------|-------------------------|--------------------------|
------------------|--3--3--3--2----2--2--2--|--2--2--2--2--2--2--2--2--|
------------------|--3--3--3--2----2--2--2--|--2--2--2--2--2--2--2--2--|
------------------|--1--1--1--0----0--0--0--|--0--0--0--0--0--0--0--0--|



-------------------------|--------------------------|-------------------------|
-------------------------|--------------------------|-------------------------|
-------------------------|--------------------------|-------------------------|
--3--3--3--2----2--2--2--|--2--2--2--2--2--2--2--2--|--3--3--3--2----2--2--2--|
--3--3--3--2----2--2--2--|--2--2--2--2--2--2--2--2--|--3--3--3--2----2--2--2--|
--1--1--1--0----0--0--0--|--0--0--0--0--0--0--0--0--|--1--1--1--0----0--0--0--|



--------------------------|-------------------------|--------------------------|
--------------------------|-------------------------|--------------------------|
--------------------------|-------------------------|--------------------------|
--2--2--2--2--2--2--2--2--|--3--3--3--2----2--2--2--|--2--2--2--2--2--2--2--2--|
--2--2--2--2--2--2--2--2--|--3--3--3--2----2--2--2--|--2--2--2--2--2--2--2--2--|
--0--0--0--0--0--0--0--0--|--1--1--1--0----0--0--0--|--0--0--0--0--0--0--0--0--|



-----------------------|-----------------------|--------------------|
-----------------------|-----------------------|--------------------|
-----------------------|----5------------------|--------------------|
----5----7----7--7--7--|----5----5----5--5--5--|----3----2----------|
----5----7----7--7--7--|----3----5----5--5--5--|----3----2----------|
----3----5----5--5--5--|---------3----3--3--3--|----1----0----------|



------------------|-----------------------|-----------------------|
------------------|-----------------------|-----------------------|
------------------|-----------------------|----5------------------|
------------------|----5----7----7--7--7--|----5----5----5--5--5--|
------------------|----5----7----7--7--7--|----3----5----5--5--5--|
------------------|----3----5----5--5--5--|---------3----3--3--3--|



----------------------|------------------|----------------------|
----------------------|------------------|----------------------|
----------------------|------------------|----------------------|
--3--3--3--2----------|------------------|--3--3--3--2----------|
--3--3--3--2----------|------------------|--3--3--3--2----------|
--1--1--1--0----------|------------------|--1--1--1--0----------|



------------------|-------------------------|--------------------------|
------------------|-------------------------|--------------------------|
------------------|-------------------------|--------------------------|
------------------|--3--3--3--2----2--2--2--|--2--2--2--2--2--2--2--2--|
------------------|--3--3--3--2----2--2--2--|--2--2--2--2--2--2--2--2--|
------------------|--1--1--1--0----0--0--0--|--0--0--0--0--0--0--0--0--|



-------------------------|--------------------------|-------------------------|
-------------------------|--------------------------|-------------------------|
-------------------------|--------------------------|-------------------------|
--3--3--3--2----2--2--2--|--2--2--2--2--2--2--2--2--|--3--3--3--2----2--2--2--|
--3--3--3--2----2--2--2--|--2--2--2--2--2--2--2--2--|--3--3--3--2----2--2--2--|
--1--1--1--0----0--0--0--|--0--0--0--0--0--0--0--0--|--1--1--1--0----0--0--0--|



--------------------------|-------------------------|--------------------------|
--------------------------|-------------------------|--------------------------|
--------------------------|-------------------------|--------------------------|
--2--2--2--2--2--2--2--2--|--3--3--3--2----2--2--2--|--2--2--2--2--2--2--2--2--|
--2--2--2--2--2--2--2--2--|--3--3--3--2----2--2--2--|--2--2--2--2--2--2--2--2--|
--0--0--0--0--0--0--0--0--|--1--1--1--0----0--0--0--|--0--0--0--0--0--0--0--0--|



-------------------------|--------------------------|-------------------------|
-------------------------|--------------------------|-------------------------|
-------------------------|--------------------------|-------------------------|
--3--3--3--2----2--2--2--|--2--2--2--2--2--2--2--2--|--3--3--3--2----2--2--2--|
--3--3--3--2----2--2--2--|--2--2--2--2--2--2--2--2--|--3--3--3--2----2--2--2--|
--1--1--1--0----0--0--0--|--0--0--0--0--0--0--0--0--|--1--1--1--0----0--0--0--|



--------------------------|-------------------------|--------------------------|
--------------------------|-------------------------|--------------------------|
--------------------------|-------------------------|--------------------------|
--2--2--2--2--2--2--2--2--|--3--3--3--2----2--2--2--|--2--2--2--2--2--2--2--2--|
--2--2--2--2--2--2--2--2--|--3--3--3--2----2--2--2--|--2--2--2--2--2--2--2--2--|
--0--0--0--0--0--0--0--0--|--1--1--1--0----0--0--0--|--0--0--0--0--0--0--0--0--|



-------------------------|--------------------------|-----------------------|
-------------------------|--------------------------|-----------------------|
-------------------------|--------------------------|-----------------------|
--3--3--3--2----2--2--2--|--2--2--2--2--2--2--2--2--|----5----7----7--7--7--|
--3--3--3--2----2--2--2--|--2--2--2--2--2--2--2--2--|----5----7----7--7--7--|
--1--1--1--0----0--0--0--|--0--0--0--0--0--0--0--0--|----3----5----5--5--5--|



-----------------------|--------------------|------------------|
-----------------------|--------------------|------------------|
----5------------------|--------------------|------------------|
----5----5----5--5--5--|----3----2----------|------------------|
----3----5----5--5--5--|----3----2----------|------------------|
---------3----3--3--3--|----1----0----------|------------------|



-----------------------|-----------------------|-----------------------|
-----------------------|-----------------------|------------------3r---|
-----------------------|----5------------------|-----------------------|
----5----7----7--7--7--|----5----5----5--5--5--|--3--3--3--2-----------|
----5----7----7--7--7--|----3----5----5--5--5--|--3--3--3--2-----------|
----3----5----5--5--5--|---------3----3--3--3--|--1--1--1--0-----------|



----------------------|---------------------|----------------------|
--5r---7r---8r---9r---|----12b---------3r---|--5r---7r---8r---9r---|
----------------------|---------------------|----------------------|
----------------------|---------------------|----------------------|
----------------------|---------------------|----------------------|
----------------------|---------------------|----------------------|



---------------------|----------------------|---------------------|
----12b---------3r---|--5r---7r---8r---9r---|----12b---------3r---|
---------------------|----------------------|---------------------|
---------------------|----------------------|---------------------|
---------------------|----------------------|---------------------|
---------------------|----------------------|---------------------|



----------------------|---------------------|----------------------|
--5r---7r---8r---9r---|----12b---------8b---|----9b-----10b-----9b-|
----------------------|---------------------|----------------------|
----------------------|---------------------|----------------------|
----------------------|---------------------|----------------------|
----------------------|---------------------|----------------------|



--------------------|----------------------|----------------------|
------8b-------8b---|----9b-----10b-----9b-|----------------------|
--------------------|----------------------|----------------------|
--------------------|----------------------|--3--3--3--2----------|
--------------------|----------------------|--3--3--3--2----------|
--------------------|----------------------|--1--1--1--0----------|



------------------|----------------------|------------------|
------------------|----------------------|------------------|
------------------|----------------------|------------------|
------------------|--3--3--3--2----------|------------------|
------------------|--3--3--3--2----------|------------------|
------------------|--1--1--1--0----------|------------------|



-----------------------|------------------|-----------------------|
------------------7----|------------------|------------------5----|
------------------7----|------------------|------------------5----|
--3--3--3--2-----------|------------------|--3--3--3--2-----------|
--3--3--3--2-----------|------------------|--3--3--3--2-----------|
--1--1--1--0-----------|------------------|--1--1--1--0-----------|



--------------------|-------------------------|--------------------------|
--------------------|-------------------------|--------------------------|
--------------------|-------------------------|--------------------------|
--------------------|--3--3--3--2----2--2--2--|--2--2--2--2--2--2--2--2--|
--------------------|--3--3--3--2----2--2--2--|--2--2--2--2--2--2--2--2--|
--------------12/---|--1--1--1--0----0--0--0--|--0--0--0--0--0--0--0--0--|



-------------------------|--------------------------|-------------------------|
-------------------------|--------------------------|-------------------------|
-------------------------|--------------------------|-------------------------|
--3--3--3--2----2--2--2--|--2--2--2--2--2--2--2--2--|--3--3--3--2----2--2--2--|
--3--3--3--2----2--2--2--|--2--2--2--2--2--2--2--2--|--3--3--3--2----2--2--2--|
--1--1--1--0----0--0--0--|--0--0--0--0--0--0--0--0--|--1--1--1--0----0--0--0--|



--------------------------|-------------------------|--------------------------|
--------------------------|-------------------------|--------------------------|
--------------------------|-------------------------|--------------------------|
--2--2--2--2--2--2--2--2--|--3--3--3--2----2--2--2--|--2--2--2--2--2--2--2--2--|
--2--2--2--2--2--2--2--2--|--3--3--3--2----2--2--2--|--2--2--2--2--2--2--2--2--|
--0--0--0--0--0--0--0--0--|--1--1--1--0----0--0--0--|--0--0--0--0--0--0--0--0--|



-----------------------|-----------------------|--------------------|
-----------------------|-----------------------|--------------------|
-----------------------|----5------------------|--------------------|
----5----7----7--7--7--|----5----5----5--5--5--|----3----2----------|
----5----7----7--7--7--|----3----5----5--5--5--|----3----2----------|
----3----5----5--5--5--|---------3----3--3--3--|----1----0----------|



------------------|-----------------------|-----------------------|
------------------|-----------------------|-----------------------|
------------------|-----------------------|----5------------------|
------------------|----5----7----7--7--7--|----5----5----5--5--5--|
------------------|----5----7----7--7--7--|----3----5----5--5--5--|
------------------|----3----5----5--5--5--|---------3----3--3--3--|



--------------------|------------------|-----------------------|
--------------------|------------------|-----------------------|
--------------------|------------------|-----------------------|
----3----2----------|------------------|----5----7----7--7--7--|
----3----2----------|------------------|----5----7----7--7--7--|
----1----0----------|------------------|----3----5----5--5--5--|



-----------------------|--------------------|------------------|
-----------------------|--------------------|------------------|
----5------------------|--------------------|------------------|
----5----5----5--5--5--|----3----2----------|------------------|
----3----5----5--5--5--|----3----2----------|------------------|
---------3----3--3--3--|----1----0----------|------------------|



-----------------------|-----------------------|----------------------||
-----------------------|-----------------------|----------------------||
-----------------------|----5------------------|----------------------||
----5----7----7--7--7--|----5----5----5--5--5--|--3--3--3--2----------||
----5----7----7--7--7--|----3----5----5--5--5--|--3--3--3--2----------||
----3----5----5--5--5--|---------3----3--3--3--|--1--1--1--0----------||


Therapy? albums
2003 High Anxiety
2001 Shameless
2000 Suicide Pact: You First
1998 Semi-Detached
1995 Infernal Love
1994 Troublegum
1993 Nurse
1993 Born in a crash
Troublegum tabs
01Knives tabbass tab
02Screamager tabbass tab
03Hellbelly tabbass tab
04Stop It You're Killing Me tabbass tab
05Nowhere tabbass tab
06Die Laughing tabbass tab
07Unbeliever tabbass tab
08Trigger Inside tabbass tab
10Isolation tabbass tab
11Turn tabbass tab
14Brainsaw tabbass tab

 

1