Search tabs:
Browse artists: 0-9 | A | B | C | D | E | F | G | H | I | J | K | L | M | N | O | P | Q | R | S | T | U | V | W | X | Y | Z
/ / / guitar tab

Tom Petty: Free Falling

          I got bored so i decided i would post this,
          and by the way this tab is 110% correct.  So any comments on
          it email me at stoner_skip@hotmail.com

          INTRO:
          |----5----6-------|-6-5------3------|
          |----6----6-------|-6-6------6------| (Repeat)
          |----5----5-------|-5-5------5------|
          |-----------------|-----------------|
          |-----------------|-----------------|
          |-----------------|-----------------|

          MAIN VERSE:CHORUS
          (F)      (Fsus)                   (F)(Csus)(Fsus)
          |1--1-1-1--1---1--1---1--1-1-|--1--1----1---1-1--1--1-1---|
          |1--1-1-1--1---1--1---1--1-1-|--1--1----1---1-1--1--1-1---|
          |2--2-2-2--3---3--3---3--3-3-|--3--2----0---0-0--0--0-0---|
          |3--3-3-3--3---3--3---3--3-3-|--3--3----2---2-2--2--2-2---|
          |----------------------------|----------------------------|
          |----------------------------|----------------------------|


          FIG. 1

          |----------------------------|----------------------------|
          |----------------------------|----------------------------|
          |----------------------------|----------------------------|
          |----------------------------|----------------------------|
          |---3--3--3--8--8--8--8--8---|-8--3--3-10--10--10--10--10-|
          |---1--1--1--6--6--6--6--6---|-6--1--1--8---8---8---8---8-|


          Intro
          Main verse
          chorus
          Main verse
          chorus
          Fig 1
          main verse
          chorus
          main verse
          chorus

          its a pretty simple song,
          Enjoy


albums
tabs

 

1