Search tabs:
Browse artists: 0-9 | A | B | C | D | E | F | G | H | I | J | K | L | M | N | O | P | Q | R | S | T | U | V | W | X | Y | Z
/ Travis / The Invisible Band (2001) / Afterglow guitar tab

TRAVIS - AFTERGLOW
Written by Fran Healy
Tabbed by Stu Chown(stickler@another.com)

GTR 1 is an acoustic which plays the rhythm chords
GTR 2 is an electric which plays lead parts

CHORDS
   G Em7 C  D Am  F Bm Em  A7
E-----------2--0--1--2-----0--
B--3--3--1--3--1--1--3--0--2--
G--0--0--0--2--2--2--4--0--0--
D--0--2--2--0--2--3--4--2--2--
A--2--2--3-----0--3--2--2--0--
E--3--0--3--------------0-----


INTRO/VERSES
GTR 1
    G				   Em7
E-------------------------------------------------------------------
B--3-3-0-0-3-3-3-3-3-3-0-0-3-3-3-3-3-3-0-0-3-3-3-3-3-3-0-0-3-3-3-3-3-3-3-3-
G--0-0-0-0-0-0-0-0-0-0-0-0-0-0-0-0-0-0-0-0-0-0-0-0-0-0-0-0-0-0-0-0-0-0-0-0-
D--0-0-0-0-0-0-0-0-0-0-0-0-0-0-0-0-2-2-2-2-2-2-2-2-2-2-2-2-2-2-2-2-2-2-2-2-
A--2-2-2-2-2-2-2-2-2-2-2-2-2-2-2-2-2-2-2-2-2-2-2-2-2-2-2-2-2-2-2-2-2-2-2-2-
E--3-3-3-3-3-3-3-3-3-3-3-3-3-3-3-3-0-0-0-0-0-0-0-0-0-0-0-0-0-0-0-0-0-0-0-0-

GTR 2 (With echo)
   Em7
E--10-10-12-12-14-14-15-15--
B---------------------------
G---------------------------
D---------------------------
A---------------------------
E---------------------------

VERSE 1
G
Feeling myself all of the time
Em7
All of the time feeling alright
G
Taking it well raising a smile
Em7
Raising a smile makes it all worthwhile


CHORUS
  C
E--0-0-0-0-0-0-0-0-
B--1-1-0-0-1-1-0-0-
G--0-0-0-0-0-0-0-0-
D--2-2-2-2-2-2-2-2-
A--3-3-3-3-3-3-3-3-
E--3-3-3-3-3-3-3-3-

C           D
And if you wanted to find
C         D
Piece of mind
C               D
Then you could find
C       D
It any time you like

  Em7
E-----------------------------------------
B-3-3-0-0-3-3-3-3-3-3-0-0-3-3-3-3-3-3-3-3-
G-0-0-0-0-0-0-0-0-0-0-0-0-0-0-0-0-0-0-0-0-
D-2-2-2-2-2-2-2-2-2-2-2-2-2-2-2-2-2-2-2-2-
A-2-2-2-2-2-2-2-2-2-2-2-2-2-2-2-2-2-2-2-2-
E-0-0-0-0-0-0-0-0-0-0-0-0-0-0-0-0-0-0-0-0-

Em7
But you are the afterglow


VERSE 2 (Chords as Verse 1)
Feeling away all of the time
All of the time being just fine
Taking a page out of my life
Out of my life with open eyes


CHORUS
  C
E--0-0-0-0-0-0-0-0-
B--1-1-0-0-1-1-0-0-
G--0-0-0-0-0-0-0-0-
D--2-2-2-2-2-2-2-2-
A--3-3-3-3-3-3-3-3-
E--3-3-3-3-3-3-3-3-

C           D
And if you wanted to find
C         D
Piece of mind
C               D
Then you could find
C       D
It any time you like

  Em7
E-----------------------------------------
B-3-3-0-0-3-3-3-3-3-3-0-0-3-3-3-3-3-3-3-3-
G-0-0-0-0-0-0-0-0-0-0-0-0-0-0-0-0-0-0-0-0-
D-2-2-2-2-2-2-2-2-2-2-2-2-2-2-2-2-2-2-2-2-
A-2-2-2-2-2-2-2-2-2-2-2-2-2-2-2-2-2-2-2-2-
E-0-0-0-0-0-0-0-0-0-0-0-0-0-0-0-0-0-0-0-0-

Em7
But you are the afterglow
G
You are the midnight show
Em7
We only wanna know
G
You come and then you go


MIDDLE
G/B                         C
And when you find...........
Am                    F
You leave nothing for me

FILL 1
GTR 2
E--------3--------
B--5-3-5---5-3-5--
G-----------------
D-----------------
A-----------------
E-----------------

Em     C (Fill 1)

Em     A7 (Fill 1)

Em     C (Fill 1)

Em     A7


OUTRO
   G				   Em7
E--3-3-3-3-3-3-3-3-3-3-3-3-3-3-3-3-3-3-3-3-3-3-3-3-3-3-3-3-3-3-3-3-3-3-3-3-3-3-3-3-
B--3-3-0-0-3-3-3-3-3-3-0-0-3-3-3-3-3-3-0-0-3-3-3-3-3-3-0-0-3-3-3-3-3-3-3-3-0-0-3-3-
G--0-0-0-0-0-0-0-0-0-0-0-0-0-0-0-0-0-0-0-0-0-0-0-0-0-0-0-0-0-0-0-0-0-0-0-0-0-0-0-0-
D--0-0-0-0-0-0-0-0-0-0-0-0-0-0-0-0-0-0-0-0-0-0-0-0-0-0-0-0-0-0-0-0-2-2-2-2-2-2-2-2-
A--2-2-2-2-2-2-2-2-2-2-2-2-2-2-2-2-2-2-2-2-2-2-2-2-2-2-2-2-2-2-2-2-2-2-2-2-2-2-2-2-
E--3-3-3-3-3-3-3-3-3-3-3-3-3-3-3-3-3-3-3-3-3-3-3-3-3-3-3-3-3-3-3-3-0-0-0-0-0-0-0-0-  etc..

GTR 2 (With echo)
   Em7
E--10-10-12-12-14-14-15-15--
B---------------------------
G---------------------------
D---------------------------
A---------------------------
E---------------------------

REPEAT SEVERAL TIMES TO FADE



Travis albums
2003 12 Memories
2001 The Invisible Band
1999 The Man Who
1997 Good Feeling
The Invisible Band tabs
01Sing tabbass tab
02Dear Diary tabbass tab
03Side tabbass tab
04Pipe Dreams tabbass tab
05Flowers In The Window tabbass tab
06The Cage tabbass tab
07Safe tabbass tab
08Follow The Light tabbass tab
09Last Train tabbass tab
10Afterglow tabbass tab
11Indefinitely tabbass tab
12The Humpty Dumpty Love Song tabbass tab

 

1