Search tabs:
Browse artists: 0-9 | A | B | C | D | E | F | G | H | I | J | K | L | M | N | O | P | Q | R | S | T | U | V | W | X | Y | Z
/ / / guitar tab

SLACK
TURIN BRAKES
THE OPTIMIST LP


VERSE/MAIN RHYTHM 
=================
     A
|----------------------------------------|
|-3/-5--5-5--5-5---3-5--5-5-8-8-7-5-5----|
|-4/-6--6-6--6-6---4-6--6-6-6-6-6-6-6----|
|-5/-7--7-7--7-7---5/7--7-7-7-7-7-7-7----|
|-0--0--0-0--0-0---0-0--0-0-0-0-0-0-0----|
|----------------------------------------|


CHORUS
======

   G          D

|---------------------------------|
|--8--10--11--7-------------------|
|--x--x---x---x---7---------------|
|--5--7---9---4---x---------------|
|-----------------5---------------|
|---------------------------------|




SOLO (quite hard to distinguish)
================================

 
  A
|---------------------------------|
|---2-2-2b3-2-2-2-2-2b3-2---------|< bend around a microtone beyond the 3
|---------------------------------|
|---------------------------------|
|---------------------------------|
|---------------------------------|



|------------------------------------|
|--0-2-0-2-0-2-0-2----/8-8-8-8-8-8-8-|
|--0-2-0-2-0-2-0-2----/9-9-9-9-9-9-9-|
|--------------------------------5-5-|
|------------------------------------|
|------------------------------------|


   G          D

|---------------------------------|
|--8--10--11--7-------------------|
|--9--x---x---x---7---------------|
|--5--7---9---4---x---------------|
|-----------------5---------------|
|---------------------------------|



albums
tabs

 

1