Search tabs:
Browse artists: 0-9 | A | B | C | D | E | F | G | H | I | J | K | L | M | N | O | P | Q | R | S | T | U | V | W | X | Y | Z
/ / / guitar tab

Starship
Turin Brakes
The Optimist LP

Standard tuning

1st Riff (played with the singing)
----------------------------------

(Keyboard plays drone of B to open.)

 G5             Dm7                 F7b5         Dm7
|-------------|--0----------------|---0-----0--|-0-----------------------------|
|------2h3-0--|--0-----------0----|---0-----0--|-0-----------0h3--0------------|
|-------------|--5-----5--------5-|-/-9--------|-5-----5--------------0--------|
|-------------|--3--------3-------|-/-7--7-----|-3--------3--------------------|
|-------------|--5--5-------------|-/-8--------|-5--5--------------------------|
|-3-3---------|-------------------|------------|-------------------------------|
                                     ^rake

2nd Riff (towards the end)
--------------------------

  D5                                 Dmaj7-6   F7b5
|----------------------------------|-0----0--|-0--------------------0--------|
|----------------------------------|-0----0--|-0------0-------------0--------|
|--------------------------6-------|-6----6/-|-9-------------9------9--------|
|--------0--4-5-4-------------4----|-4----4/-|-7---------7----------7--------|
|------------------3/5--5--------5-|-5----5/-|-8---8------------8---8--------|
|--0h2-----------------------------|---------|-------------------------------|
                                    ^rake                          ^rake



albums
tabs

 

1