Search tabs:
Browse artists: 0-9 | A | B | C | D | E | F | G | H | I | J | K | L | M | N | O | P | Q | R | S | T | U | V | W | X | Y | Z
/ Vader / Kingdom (1998) / Creatures Of Light And Darkness guitar tab

Band: Vader
Album: Kingdom
Song: Creatures of Light and Darkness
by vaderfan
*** ORIGINALLY BY "CARNAL" ***


e-----------|
B-----------|
G-----------|
D-----------|
A-3---------|
E-1---------|
    (increase volume)

 Fig.1   x3

e---------------------------------|
B---------------------------------|
G---------------------------------|
D---------------------------------|
A-----------------------666--5m---|
E--33333-222-33-22-0000----5m---4-|
  Rise!

 Fig.2
e---------------------------------|
B---------------------------------|
G---------------------------------|
D---------------------------------|
A---------------------------------|
E--33333-222-33-22-1111-333-22-33-|

 Fig.3   x3
e---------------------------------|
B---------------------------------|
G---------------------------------|
D---------------------------------|
A------------------77-------------|
E--000000000-33333---6m-5m-4m-3-0-|

 Fig.4

e----------------------------|
B----------------------------|
G----------------------------|
D----------------------------|
A------------------222-33-22-|
E--000000000-33333-----------|

 I gitara:
e---------------------------|
B---------------------------|
G---------------------------|
D---------------------------|
A--3-3m-3m-3m-3m3m-3m-3m-3m-|
E--1-1m-1m-1m-1m1m-1m-1m-1m-|


 Obie gitary:
e--------------------------|
B--------------------------|
G--------------------------|
D--4--4--5-----------------|
A--2--2--3--2222-3333------|
E--------------------22222-|
 x3:
e----------------------------|
B----------------------------|
G----------------------------|
D----------------------------|
A-------222-111-222-33333----|
E-111111-----------------222-|

e--------------------------------|
B--------------------------------|
G--------------------------------|
D--------------------------------|
A-------222-111-222-33333--------|
E-111111-------------------2-3-4-|

 I gitara:

e-----------------------------------------------|
B-----------------------------------------------|
G-----------------------------------------------|
D-----------------------------------------------|
A-----------------------------------------------|
E-444444444444444444444444444444444444444444444-|

 II gitara:

e-----------------------------------------------|
B-----------------------------------------------|
G-----------------------------------------------|
D-----------------------------------------------|
A------------------5-4-5^----5^-4-----5^-4-5-6^-|
E-----------------------------------------------|

 Fig.5 obie gitary:    x3
e-----------------------------------------|
B-----------------------------------------|
G-----------------------------------------|
D-----------------------------------------|
A--------------555^-444-555-666666--------|
E-4444444444444------------------55555555-|
  Yeeeeaaaahhhhh!!!

e------------------------------------------|
B------------------------------------------|
G------------------------------------------|
D------------------------------------------|
A--------------555-444-555---------5m-3m-2-|
E-4444444444444-----------3333333--3m-1m-0-|

 Fig.6:
e---------------------------------|-------------------------------|
B---------------------------------|-------------------------------|
G---------------------------------|-------------------------------|
D---------------------------------|-------------------------------|
A---------------------------------|-2m--2m------------------------|
E---------------------------------|-0m--0m------------------------|
 A man chosen to trace down a god  The cycle unwinds so slowly
 In the world between two houses   The middle worlds laid to waste

 Fig.3   x4
e---------------------------------|
B---------------------------------|
G---------------------------------|
D---------------------------------|
A------------------77-------------|
E--000000000-33333---6m-5m-4m-3-0-|
   Yeeaaah!!
 The things that cries in the night
   Yeaaaah!!
 Defeated by the prince who was a 1000

  Fig.2  x3
e---------------------------------|
B---------------------------------|
G---------------------------------|
D---------------------------------|
A-----------------------666--5m---|
E--33333-222-33-22-0000----5m---4-|
   All gods could not
   withhold the nameless
   Yeaaaahhhh!!!
e----------------------------------|
B----------------------------------|
G----------------------------------|
D----------------------------------|
A----------------------------------|
E--33333-222-33-22-0000-3333-22-33-|
 The terror that lurks outside

e-----------------------------------------|
B-----------------------------------------|
G-----------------------------------------|
D-----------------------------------------|
A--------------555^-444-555-666666--------|
E-4444444444444------------------55555555-|
 Creatures of light and darkness
 Are born in great numbers
 Creatures of light and darkness
e------------------------------------------|
B------------------------------------------|
G------------------------------------------|
D------------------------------------------|
A--------------555-444-555---------5m-3m-2-|
E-4444444444444-----------3333333--3m-1m-0-|
 May die and rise again

Fig.6 (tekst): For the want of control
               They can set all words afire
               The hammer that smashes suns
               Its work cannot be undone
Fig.3 (tekst): Horus hermes trismagistos
               The calls of the universal panthenon
               Realities fold and submerge
               When gods combat against their own blood

 Fig.7 x4
e---------------------------------|
B---------------------------------|
G---------------------------------|
D---------------------------------|
A---------------------------------|
E--33333-222-33-22-0000000000-----|
 On my lips the name of the god
 Whose face no one remembers
 Eternal feud for those of the unlight
 Set the destroyer, the lord of chaos

 Fig.8 x4 (podkład pod solo):
e---------------------------------|
B---------------------------------|
G---------------------------------|
D---------------------------------|
A---------------------------------|
E--33333-222-33-22-11111111111111-|

 Fig.9 x4
e------------------------------------------|
B------------------------------------------|
G------------------------------------------|
D------------------------------------------|
A--------------555^-444-555-666666---------|
E-4444444444444-------------------55555555-|
  Creatures of light and darkness
  Are born in great numbers
  Creatures of light and darkness
  May die and rise again

 Fig.10
e------------------------------------------|
B------------------------------------------|
G------------------------------------------|
D------------------------------------------|
A--------------444-333-444-555555----------|
E-3333333333333------------------444444444-|
  They're creatures of light and darkness
  They're creatures of light and darkness
  They're creatures of light and darkness
e---------------------------------------|
B---------------------------------------|
G---------------------------------------|
D---------------------------------------|
A--------------444-333-444-555555-66666-|
E-3333333333333-------------------------|
  They'll die but shall rise again

 I gitara:
e-----------------------------------------------|
B-----------------------------------------------|
G-----------------------------------------------|
D-----------------------------------------------|
A-----------------------------------------------|
E-444444444444444444444444444444444444444444444-|

 II gitara:

e-----------------------------------------------|
B-----------------------------------------------|
G-----------------------------------------------|
D-----------------------------------------------|
A------------------5-4-5^----5^-4-----5^-4-5-6^-|
E-----------------------------------------------|


Vader albums
2001 Reign Forever World
2000 Litany
1998 Kingdom
1997 Black To The Blind
1996 Future Of The Past
1995 De Profundis
1994 Sothis
1992 The Ultimate Incantation
Kingdom tabs
01Creatures Of Light And Darkness tabbass tab
04Anamnesis tabbass tab

 

1