Search tabs:
Browse artists: 0-9 | A | B | C | D | E | F | G | H | I | J | K | L | M | N | O | P | Q | R | S | T | U | V | W | X | Y | Z
/ Vader / Litany (2000) / Wings guitar tab

vader-wings


trem=tremolo piking
^=half step bend
pm=palm mute
h=hammer on
p=pull off
\=slide down
~=vibrato
3=triplet
*stacato

Intro
  E |----------------------------------------------------|
  B |----------------------------------------------------|
  G |----------------------------------------------------|
  D |-------0-4-4-5-4-5-5-5-5-5-5-5-5--------------------|
  A |-2-2-2-----------3-3-3-3-3-3-3-3--------------------|
  E |----------------------------------------------------|
      * * * * * * * * * * * * * * * *



  E |----------------------------------------------------|
  B |----------------------------------------------------|
  G |----------------------------------------------------|
  D |------0-4---5-4-5-----------------------------------|
  A |2---------------3------------10\--------------------|
  E |-----------------------------10\--------------------|
     trem.............


  riff 1
  E |-----------------------------------------------------|
  B |-----------------------------------------------------|
  G |-----------------------------------------------------|
  D |-----------------------------------------------------|
  A |--------3-------------3------------3-----3-----------|
  E |0---1-0----1-0----1-0---1-0----1-0---1-0-1---3-4--3-1|
     trem..................................................

Verse
  part 1
  E |----------------------------------------------------|
  B |----------------------------------------------------|
  G |----------------------------------------------------|
  D |----------------------------------------------------|
  A |2-------------3-------------------------------------|
  E |0-------------1----3-4---3-1------------------------|
     trem........................
  part 2
  E |----------------------------------------------------|
  B |----------------------------------------------------|
  G |----------------------------------------------------|
  D |----------------------------------------------------|
  A |2-------------3------3---2--------------------------|
  E |0-------------1----3--------------------------------|
     trem......................

part 1 again

  fill 1
  E |----------------------------------------------------|
  B |----------------------------------------------------|
  G |----------------------------------------------------|
  D |----------------------------------------------------|
  A |2--------------3-3-3-3-3-3---22---------------------|
  E |0--------------1-1-1-1-1-1-33-----------------------|
     trem...........pm.........

Chorus
  E |----------------------------------------------------|
  B |----------------------------------------------------|
  G |----------------------------------------------------|
  D |----0-4---5-4-5-------------------------------------|
  A |2-------------3-------------------------------------|
  E |----------------------------------------------------|
     trem.......................

  E |----------------------------------------------------|
  B |----------------------------------------------------|
  G |----------------------------------------------------|
  D |----0-4---5-4-5-------------------------------------|
  A |2-------------3-----3-------------------------------|
  E |--------------------1-------------------------------|
     trem.................

verse with This fill instead of fill 1
Fill 2

  E |----------------------------------------------------|
  B |----------------------------------------------------|
  G |----------------------------------------------------|
  D |----------------------------------------------------|
  A |2---5-6---8-7---------------------------------------|
  E |0---3-4---6-5---------------------------------------|

Chorus 2x

Solo-I dont know what the hell ther doing and I dont use my whammy so, no go.

Melody
  E |---------------------------------------------------------|
  B |---------------------------------------------------------|
  G |---------------------------------------------------------|
  D |---------------------------------------------------------|
  A |----------------------------2-----2-2---109---7---8-7----|
  E |5------4------0------1------0-----0-0---8-7---5---6-5----|
     trem........................      pm


  E |----------------------------------------------------|
  B |----------------------------------------------------|
  G |----------------------------------------------------|
  D |------5-4-------------------------------------------|
  A |3-2---3-2-------------------------------------------|
  E |1-0-------------------------------------------------|

Riff 1 twice


  E |----------------------------------------------------|
  B |----------------------------------------------------|
  G |----------------------------------------------------|
  D |----------------------------------------------------|
  A |2----------------2----------------------------------|
  E |0----------------0----------------------------------|


now the guitars are in drop d. wata yu know. Im wayyyy to fukin lazy to go bak and
transcribe all the guitar parts to drop d.this *** was hard to figure out becuz the
druming was too loud and the guitars are tuned down lower. youd better enjoy it before
I come over to your house and spank you.

  crazy part 1
  E |----------------------------------------------------|
  B |----------------------------------------------------|
  G |----------------------------------------------------|
  D |----------------------------------------------------|
  A |----------------------------------------------------|3x
  E |0---1---0---3---0---3---1---4-----------------------|
     trem.........................

continued...
  E |----------------------------------------------------|
  B |----------------------------------------------------|
  G |----------------------------------------------------|
  D |----------------------------------------------------|
  A |----------------------------------------------------|
  E |0---3---1---0---1-----------------------------------|
     trem.........................



  E |---------------------------------------------------------|
  B |---------------------------------------------------------|
  G |---------------------------------------------------------|
  D |---------------------------------------------------------|
  A |---------------------------------------------------------|
  E |0---3---1--------0---3---1--------0---3---1---0---1------|
     trem..................................................

  Crazy part 2
  E |----------------------------------------------------|
  B |----------------------------------------------------|
  G |----------------------------------------------------|
  D |----------------------------------------------------|
  A |----------------------------------------------------|
  E |0---3---1---3---+6~---------------------------------|
     trem............


  E |----------------------------------------------------|
  B |----------------------------------------------------|
  G |----------------------------------------------------|
  D |----------------------------------------------------|
  A |----------------------------------------------------|
  E |0---1---3---1---0---1---+7~-------------------------|
     trem....................

  E |----------------------------------------------------|
  B |----------------------------------------------------|
  G |----------------------------------------------------|
  D |----------------------------------------------------|
  A |----------------------------------------------------|
  E |0---1---3---1---0---1---+6~-------------------------|
     trem....................

  E |----------------------------------------------------|
  B |----------------------------------------------------|
  G |----------------------------------------------------|
  D |----------------------------------------------------|
  A |----------------------------3--1--0-+0-3--1--0-+0---|
  E |0---1---3---1---0---1---+6--3--1--0----3--1--0------|crazy, no?
     trem....................    pm.....    .......

crazy part 2 again


  crazy part 3- its so *** crazy that this is a geuss
  E |----------------------------------------------------|
  B |----------------------------------------------------|
  G |----------------------------------------------------|
  D |----------------------------------------------------|
  A |---3--1--0-+0-3--1--0-0-0---------------------------|repeat a few times
  E |+6-3--1--0----3--1--0-0-0-+6-0-+7-0-+6-0------------|
        pm.....    ...........
  E |----------------------------------------------------|
  B |----------------------------------------------------|
  G |----------------------------------------------------|
  D |----------------------------------------------------|
  A |0--3--1--0------3--1--0--0--------------------------|
  E |0--3--1--0-+6~--3--1--0--0-+7-0-+8~-----------------|play a few times until
     pm........      ..........                                          end


Vader albums
2001 Reign Forever World
2000 Litany
1998 Kingdom
1997 Black To The Blind
1996 Future Of The Past
1995 De Profundis
1994 Sothis
1992 The Ultimate Incantation
Litany tabs
01Wings tabbass tab
03Xeper tabbass tab
04Litany tabbass tab
05Cold Demons tabbass tab
07North tabbass tab

 

1