Search tabs:
Browse artists: 0-9 | A | B | C | D | E | F | G | H | I | J | K | L | M | N | O | P | Q | R | S | T | U | V | W | X | Y | Z
/ / / guitar tab

(Intro)-clean

E------------------------------------------
A------------------------------------------
D-------------------55----55----55----55---
G-777777777777777---55-5--55-5--55-5--55-5-
B-777777777777777---33-5--33-5--33-5--33-5-
E-555555555555555------3-----3-----3-----3-

(Verse)-the first bit is longer

Listen Master can I ask you a question
E-----------------------------------------------------------------
A-----------------------------------------------------------------
D------------------------------------------55----55----55----55---
G-7-7-7-7-7-7-7-7-7-7-7-7-7-7-7-7-7-7-7-7--55-5--55-5--55-5--55-5-
B-7-7-7-7-7-7-7-7-7-7-7-7-7-7-7-7-7-7-7-7--33-5--33-5--33-5--33-5-
E-5-5-5-5-5-5-5-5-5-5-5-5-5-5-5-5-5-5-5-5-----3-----3-----3-----3-

(Chorus)
-and mabee ill put my love on ice teach myself baby that'll be nice
E------------------------------------------------------------------
A------------------------------------------------------------------
D------------------------------------------------------------------
G--66---------66------33------22----33--------44-----------66------
B--66---------44------33------22----33--------44-----------66------
E--44---------22------11------------11--------22-----------44------

(Other Bit)-Heavy Distortion

E---------------------------------
A---------------------------------
D----------------------------X--7-
G-7-7-7-7-7-7-7-7-7-7-7-7-7--X--7-  X = Numb
B-7-7-7-7-7-7-7-7-7-7-7-7-7--X--5-
E-5-5-5-5-5-5-5-5-5-5-5-5-5--X----
Then play the chorus in distortionand back
to the normal song.Sorry theres no solo


albums
tabs

 

1