Search tabs:
Browse artists: 0-9 | A | B | C | D | E | F | G | H | I | J | K | L | M | N | O | P | Q | R | S | T | U | V | W | X | Y | Z
/ / / guitar tab

My friend told me that this is just an easier way to play this tab.

play this in power chords with a kind of distortion at the begining

--------------------------------------------------
--------------------------------------------------
------6---6----4-4----5-5---6--4------------------
------7---7----5-5----5-5---7--5------------------
------7---7----5-5----3-3---7--5------------------
------5---5----3-3----------5--3------------------

The 3rd sting you don't really nead to play 66   44   **    64

then when it goes clean play this in a strumming pattern

------5---5----3-3----3-3---3--3------------------
------5---5----3-3----3-3---3--3------------------
------6---6----4-4----5-5---6--4------------------
------7---7----5-5----5-5---7--5------------------
------7---7----5-5----3-3---7--5------------------
------5---5----3-3----------5--3------------------

Haven't a clue for the solo



     but it kicks.......ass! the white stripes always do.

Hail the white stripes

any comments please direct them to a brick wall!
or
email me at brooksthe1@hotmail.com

peace out


albums
tabs

 

1