Search tabs:
Browse artists: 0-9 | A | B | C | D | E | F | G | H | I | J | K | L | M | N | O | P | Q | R | S | T | U | V | W | X | Y | Z
/ / / guitar tab

THE WHITE STRIPES
YOU'VE GOT HER IN YOUR POCKET

Chord List

		  EADGBE
	A	- X02220
	Am	- X02210
	C	- X32010
	D	- XX0232

	
	Standard Tuning
	No Capo



	Intro

	D		   G		 C     	G	       A
E-------2---------|-----------------|-----------------|-----------------|
B-----3-----3-----|-----------------|-----------------|-------2h3-2-----|
G---2---------2---|--------0--------|-----0-------0---|-----2-------2---|
D-0-------------0-|------0---0---0--|---2---2---0---0-|---2-----------2-|
A-----------------|----2-------2----|-3-------2-------|-0---------------|
E-----------------|--3--------------|-----------------|-----------------|

	

	D		   G		 C     	G	       A
E-------2---------|-----------------|-----------------|-----------------|
B-----3-----3-----|-----------------|-----------------|-------2h3p2-----|
G---2---------2---|--------0--------|------0-------0--|-----2-------2---|
D-0-------------0-|------0---0---0--|---2---2---0---0-|---2-----------2-|
A-----------------|----2-------2----|-3-------2-------|-0---------------|
E-----------------|--3--------------|-----------------|-----------------|



	Chorus

	D		   G		 C     	G	       A
E-------2---------|-----------------|-----------------|-----------------|
B-----3-----3-----|-----------------|-----------------|-------2h3-2-----|
G---2---------2---|--------0--------|-----0-------0---|-----2-------2---|
D-0-------------0-|------0---0---0--|---2---2---0---0-|---2-----------2-|
A-----------------|----2-------2----|-3-------2-------|-0---------------|
E-----------------|--3--------------|-----------------|-----------------|
	      You've got..   pocket, and there's no     way       out now 	


	D		   G		 C     	G	       A
E-------2---------|-----------------|-----------------|-0---0---0-0-----|
B-----3-----3-----|-----------------|-----------------|-2---2---2-2-----|
G---2---------2---|--------0--------|------0-------0--|-2---2---2-2-----|
D-0-------------0-|------0---0---0--|---2---2---0---0-|-2---2---2-2-----|
A-----------------|----2-------2----|-3-------2-------|-0---0---0-0-----|
E-----------------|--3--------------|-----------------|-----------------|

	      Put it in..   lock it, cos it's home    sweet      home


	Verse 1

	A		  Am		     Am		 G        D
E-0---0---0-0-----|--0---0---0-0----|--0---0---0-0----|--3--------2-----|
B-2---2---2-2-----|--1---1---1-1----|--1---1---1-1----|--3--------3-----|
G-2---2---2-2-----|--2---2---2-2----|--2---2---2-2----|--0--------2-----|
D-2---2---2-2-----|--2---2---2-2----|--2---2---2-2----|--0--------0-----|
A-0---0---0-0-----|--0---0---0-0----|--0---0---0-0----|--2--------------|
E-----------------|-----------------|-----------------|--3--------------|

			Nobody ever told you it was the wrong    way

	D		  Am		     Am		 G	  D
E-2h3-2-2-2h3-2---|--0---0---0-0----|--0---0---0-0----|--3--------2-----|
B-3---3-3-3---2---|--1---1---1-1----|--1---1---1-1----|--3--------3-----|
G-2---2-2-2---2---|--2---2---2-2----|--2---2---2-2----|--0--------2-----|
D-0---0-0-0---2---|--2---2---2-2----|--2---2---2-2----|--0--------0-----|
A-----------------|--0---0---0-0----|--0---0---0-0----|--2--------------|
E-----------------|-----------------|-----------------|--3--------------|

			To trick a woman make her feel she did it her way

	D		   C		     C		 G	  G
E-2h3-2-2-2h3-2---|--0---0---0-0----|--0---0---0-0----|--3--------3-----|
B-3---3-3-3---2---|--1---1---1-1----|--1---1---1-1----|--3--------3-----|
G-2---2-2-2---2---|--0---0---0-0----|--0---0---0-0----|--0--------0-----|
D-0---0-0-0---2---|--2---2---2-2----|--2---2---2-2----|--0--------0-----|
A-----------------|--3---3---3-3----|--3---3---3-3----|--2--------2-----|
E-----------------|-----------------|-----------------|--3--------3-----|
				And you'll be there if she ever feels blue
	
	G		   C		    C		      F
E--0--1--2--3--3--|--0---0---0-0----|--0---0---0-0----|-1---1---1-1-----|
B-----------3--3--|--1---1---1-1----|--1---1---1-1----|-1---1---1-1-----|
G-----------0--0--|--0---0---0-0----|--0---0---0-0----|-2---2---2-2-----|
D-----------0--0--|--2---2---2-2----|--2---2---2-2----|-3---3---3-3-----|
A-----------2--2--|--3---3---3-3----|--3---3---3-3----|-----------------|
E-----------3--3--|-----------------|-----------------|-----------------|

			And you'll be there when she finds someone new

         A
E--0---0---0-0----|-----------------|-----------------|-----------------|
B--2---2---2-2----|-----------------|-----------------|-----------------|
G--2---2---2-2----|-----------------|-----------------|-----------------|
D--2---2---2-2----|-----------------|-----------------|-----------------|
A--0---0---0-0----|-----------------|-----------------|-----------------|
E-----------------|-----------------|-----------------|-----------------|

What to do. Well you know




	Chorus

		D		   G		 C     	G	       A
	E-------2---------|-----------------|-----------------|-----------------|
	B-----3-----3-----|-----------------|-----------------|-------2h3-2-----|
	G---2---------2---|--------0--------|-----0-------0---|-----2-------2---|
	D-0-------------0-|------0---0---0--|---2---2---0---0-|---2-----------2-|
	A-----------------|----2-------2----|-3-------2-------|-0---------------|
	E-----------------|--3--------------|-----------------|-----------------|

	      You keep..   pocket, where there's no     way       out now 	

		D		   G		 C     	G	       A
	E-------2---------|-----------------|-----------------|-0---0---0-0-----|
	B-----3-----3-----|-----------------|-----------------|-2---2---2-2-----|
	G---2---------2---|--------0--------|------0-------0--|-2---2---2-2-----|
	D-0-------------0-|------0---0---0--|---2---2---0---0-|-2---2---2-2-----|
	A-----------------|----2-------2----|-3-------2-------|-0---0---0-0-----|
	E-----------------|--3--------------|-----------------|-----------------|

	      Put it in..   lock it, cos it's home    sweet      home




-----------------------------------------------------------------------------------------
	Verse 2


		A		  Am		     Am		
	E-0---0---0-0-----|--0---0---0-0----|--0---0---0-0----|-----------------|
	B-2---2---2-2-----|--1---1---1-1----|--1---1---1-1----|-----------------|
	G-2---2---2-2-----|--2---2---2-2----|--2---2---2-2----|-----------------|
	D-2---2---2-2-----|--2---2---2-2----|--2---2---2-2----|-----------------|
	A-0---0---0-0-----|--0---0---0-0----|--0---0---0-0----|-----------------|
	E-----------------|-----------------|-----------------|-----------------|



				  Am		     Am		 G        D
	E-----------------|--0---0---0-0----|--0---0---0-0----|--3--------2-----|
	B-----------------|--1---1---1-1----|--1---1---1-1----|--3--------3-----|
	G-----------------|--2---2---2-2----|--2---2---2-2----|--0--------2-----|
	D-----------------|--2---2---2-2----|--2---2---2-2----|--0--------0-----|
	A-----------------|--0---0---0-0----|--0---0---0-0----|--2--------------|
	E-----------------|-----------------|-----------------|--3--------------|
	
			     The smile on your face made her... right    one

		D		  Am		     Am		 G	  D
	E-2h3-2-2-2h3-2---|--0---0---0-0----|--0---0---0-0----|--3--------2-----|
	B-3---3-3-3---2---|--1---1---1-1----|--1---1---1-1----|--3--------3-----|
	G-2---2-2-2---2---|--2---2---2-2----|--2---2---2-2----|--0--------2-----|
	D-0---0-0-0---2---|--2---2---2-2----|--2---2---2-2----|--0--------0-----|
	A-----------------|--0---0---0-0----|--0---0---0-0----|--2--------------|
	E-----------------|-----------------|-----------------|--3--------------|

				Then she thought she was sure ... have     fun

		D		   C		     C		 G	  G
	E-2h3-2-2-2h3-2---|--0---0---0-0----|--0---0---0-0----|--3--------3-----|
	B-3---3-3-3---2---|--1---1---1-1----|--1---1---1-1----|--3--------3-----|
	G-2---2-2-2---2---|--0---0---0-0----|--0---0---0-0----|--0--------0-----|
	D-0---0-0-0---2---|--2---2---2-2----|--2---2---2-2----|--0--------0-----|
	A-----------------|--3---3---3-3----|--3---3---3-3----|--2--------2-----|
	E-----------------|-----------------|-----------------|--3--------3-----|

				But now she might leave like.. before
	
		G		   C		    C		      F
	E--0--1--2--3--3--|--0---0---0-0----|--0---0---0-0----|-1---1---1-1-----|
	B-----------3--3--|--1---1---1-1----|--1---1---1-1----|-1---1---1-1-----|
	G-----------0--0--|--0---0---0-0----|--0---0---0-0----|-2---2---2-2-----|
	D-----------0--0--|--2---2---2-2----|--2---2---2-2----|-3---3---3-3-----|
	A-----------2--2--|--3---3---3-3----|--3---3---3-3----|-----------------|
	E-----------3--3--|-----------------|-----------------|-----------------|

				Grab hold of her first before.. floor,  and

	         A
	E--0---0---0-0----|-----------------|-----------------|-----------------|
	B--2---2---2-2----|-----------------|-----------------|-----------------|
	G--2---2---2-2----|-----------------|-----------------|-----------------|
	D--2---2---2-2----|-----------------|-----------------|-----------------|
	A--0---0---0-0----|-----------------|-----------------|-----------------|
	E-----------------|-----------------|-----------------|-----------------|

	 she's out the door, cos you want



-----------------------------------------------------------------------------------------
	Chorus

		D		   G		 C     	G	       A
	E-------2---------|-----------------|-----------------|-----------------|
	B-----3-----3-----|-----------------|-----------------|-------2h3-2-----|
	G---2---------2---|--------0--------|-----0-------0---|-----2-------2---|
	D-0-------------0-|------0---0---0--|---2---2---0---0-|---2-----------2-|
	A-----------------|----2-------2----|-3-------2-------|-0---------------|
	E-----------------|--3--------------|-----------------|-----------------|

	    To keep her..   pocket, where there's no     way       out now 	

		D		   G		 C     	G	       A
	E-------2---------|-----------------|-----------------|-0---0---0-0-----|
	B-----3-----3-----|-----------------|-----------------|-2---2---2-2-----|
	G---2---------2---|--------0--------|------0-------0--|-2---2---2-2-----|
	D-0-------------0-|------0---0---0--|---2---2---0---0-|-2---2---2-2-----|
	A-----------------|----2-------2----|-3-------2-------|-0---0---0-0-----|
	E-----------------|--3--------------|-----------------|-----------------|

	      Put it in..   lock it, cos it's home    sweet      home




-----------------------------------------------------------------------------------------
	Verse 3


		A		  Am		     Am		
	E-0---0---0-0-----|--0---0---0-0----|--0---0---0-0----|-----------------|
	B-2---2---2-2-----|--1---1---1-1----|--1---1---1-1----|-----------------|
	G-2---2---2-2-----|--2---2---2-2----|--2---2---2-2----|-----------------|
	D-2---2---2-2-----|--2---2---2-2----|--2---2---2-2----|-----------------|
	A-0---0---0-0-----|--0---0---0-0----|--0---0---0-0----|-----------------|
	E-----------------|-----------------|-----------------|-----------------|



				  Am		     Am		 G        D
	E-----------------|--0---0---0-0----|--0---0---0-0----|--3--------2-----|
	B-----------------|--1---1---1-1----|--1---1---1-1----|--3--------3-----|
	G-----------------|--2---2---2-2----|--2---2---2-2----|--0--------2-----|
	D-----------------|--2---2---2-2----|--2---2---2-2----|--0--------0-----|
	A-----------------|--0---0---0-0----|--0---0---0-0----|--2--------------|
	E-----------------|-----------------|-----------------|--3--------------|
	
			     And in your own mind you know..... know      her

		D		  Am		     Am		 G	  D
	E-2h3-2-2-2h3-2---|--0---0---0-0----|--0---0---0-0----|--3--------2-----|
	B-3---3-3-3---2---|--1---1---1-1----|--1---1---1-1----|--3--------3-----|
	G-2---2-2-2---2---|--2---2---2-2----|--2---2---2-2----|--0--------2-----|
	D-0---0-0-0---2---|--2---2---2-2----|--2---2---2-2----|--0--------0-----|
	A-----------------|--0---0---0-0----|--0---0---0-0----|--2--------------|
	E-----------------|-----------------|-----------------|--3--------------|

				And in the beginning all you... show      her

		D		   C		     C		 G	  G
	E-2h3-2-2-2h3-2---|--0---0---0-0----|--0---0---0-0----|--3--------3-----|
	B-3---3-3-3---2---|--1---1---1-1----|--1---1---1-1----|--3--------3-----|
	G-2---2-2-2---2---|--0---0---0-0----|--0---0---0-0----|--0--------0-----|
	D-0---0-0-0---2---|--2---2---2-2----|--2---2---2-2----|--0--------0-----|
	A-----------------|--3---3---3-3----|--3---3---3-3----|--2--------2-----|
	E-----------------|-----------------|-----------------|--3--------3-----|

				But now you're scared, you...    away
	
		G		   C		    C		      F
	E--0--1--2--3--3--|--0---0---0-0----|--0---0---0-0----|-1---1---1-1-----|
	B-----------3--3--|--1---1---1-1----|--1---1---1-1----|-1---1---1-1-----|
	G-----------0--0--|--0---0---0-0----|--0---0---0-0----|-2---2---2-2-----|
	D-----------0--0--|--2---2---2-2----|--2---2---2-2----|-3---3---3-3-----|
	A-----------2--2--|--3---3---3-3----|--3---3---3-3----|-----------------|
	E-----------3--3--|-----------------|-----------------|-----------------|

				You search in your hand for... to say,  don't

	         A
	E--0---0---0-0----|-----------------|-----------------|-----------------|
	B--2---2---2-2----|-----------------|-----------------|-----------------|
	G--2---2---2-2----|-----------------|-----------------|-----------------|
	D--2---2---2-2----|-----------------|-----------------|-----------------|
	A--0---0---0-0----|-----------------|-----------------|-----------------|
	E-----------------|-----------------|-----------------|-----------------|

	  go away, cos I want



-----------------------------------------------------------------------------------------
	Chorus

		D		   G		 C     	G	       A
	E-------2---------|-----------------|-----------------|-----------------|
	B-----3-----3-----|-----------------|-----------------|-------2h3-2-----|
	G---2---------2---|--------0--------|-----0-------0---|-----2-------2---|
	D-0-------------0-|------0---0---0--|---2---2---0---0-|---2-----------2-|
	A-----------------|----2-------2----|-3-------2-------|-0---------------|
	E-----------------|--3--------------|-----------------|-----------------|

	    To keep you..   pocket, and there's no     way       out 	

		D		   G		 C     	G	       A
	E-------2---------|-----------------|-----------------|-0---0---0-0-----|
	B-----3-----3-----|-----------------|-----------------|-2---2---2-2-----|
	G---2---------2---|--------0--------|------0-------0--|-2---2---2-2-----|
	D-0-------------0-|------0---0---0--|---2---2---0---0-|-2---2---2-2-----|
	A-----------------|----2-------2----|-3-------2-------|-0---0---0-0-----|
	E-----------------|--3--------------|-----------------|-----------------|

	      Put it in..   lock it, cos it's home    sweet      home,



-----------------------------------------------------------------------------------------
	Outro

		C		   G		    A
	E-------0---------|--------3--------|-------0---------|-----------------|
	B-------1---------|--------3--------|-------2---------|-----------------|
	G-------0---------|--------0--------|-------2---------|-----------------|
	D-------2---------|--------0--------|-------2---------|-----------------|
	A-------3---------|--------2--------|-------0---------|-----------------|
	E-----------------|--------3--------|-----------------|-----------------|
	       Home 		 Sweet             Home


albums
tabs

 

1