Search tabs:
Browse artists: 0-9 | A | B | C | D | E | F | G | H | I | J | K | L | M | N | O | P | Q | R | S | T | U | V | W | X | Y | Z
/ / / guitar tab

Bedroom Thang
from ZZ Top

intro
E--0-0-0--0-0-0--0-0-0--0-0-0-
B-/3-3-3--3-3-3--3-3-3--3-3-3-
G-/4-4-4--4-4-4--4-4-4--4-4-4-
D-----------------------------
A-----------------------------
E-----------------------------

main riff
E-----------------
B-----------------
G-----------------
D---------------2- x 4
A-------0-0-------
E-0-0-3b----3p0---

verse 1
E                       B
I know you wanna be my bedroom thang,
G          A            riff x 2
but you're much too young.
E                        B
You're the finest thing I've ever seen.
G        A           riff x 2
You just wanna have fun.

chorus
B
I need someone who can scratch my back.
B
I need someone who can carry my pack.
B
I need someone to be with me at night.
A                                riff x 4
You're gonna make me feel alright.

verse 2
Don't you bother me with petty lines,
I know you ran away from home.
This might come to you as some surprise,
I wish you'd leave me alone.

chorus
I need someone to scratch my back.
I need someone to carry my pack.
I need someone to be with me at night.
You're gonna make me feel alright.

guitar thang (probably done with 2 or more guitars...)
E-0-0-0--0-0-0--0-0-0--0-0-0-
B-3-3-3--3-3-3--3-3-3--3-3-3-
G-4-4-4--4-4-4--4-4-4--4-4-4-
D-2-2-2--2-2-2--2-2-2--2-2-2- x 8
A-2-2-2--2-2-2--2-2-2--2-2-2-
E-0-0-0--0-0-0--0-0-0--0-0-0-

chorus
B                      no chord
I need someone who can (guitar talkin')
B                      no chord
I need someone who can (guitar talkin')
B
I need someone to be with me at night.
A                                riff x 4
You're gonna make me feel alright.

more of that guitar thang
  E                    G
E-0-0-0--0-0-0--0-0-0--3-
B-3-3-3--3-3-3--3-3-3--3-
G-4-4-4--4-4-4--4-4-4--4-
D-2-2-2--2-2-2--2-2-2--5- x 14
A-2-2-2--2-2-2--2-2-2--5-
E-0-0-0--0-0-0--0-0-0--3-

guitar break
E----------------------
B----------------------
G-7-9------------------
D------7-9--5-7---5---- x 2
A---------------7----7-
E----------------------

still more of that guitar thang
  E                    G
E-0-0-0--0-0-0--0-0-0--3-
B-3-3-3--3-3-3--3-3-3--3-
G-4-4-4--4-4-4--4-4-4--4-
D-2-2-2--2-2-2--2-2-2--5- x 8 and fade...
A-2-2-2--2-2-2--2-2-2--5-
E-0-0-0--0-0-0--0-0-0--3-


albums
tabs

 

1