Search tabs:
Browse artists: 0-9 | A | B | C | D | E | F | G | H | I | J | K | L | M | N | O | P | Q | R | S | T | U | V | W | X | Y | Z
/ ZZ Top / Recycler (1990) / Give It Up guitar tab

E-|--------------------|----------------|-------------------|-----------------|
B-|--------------------|----------------|-------------------|-----------------|
G-|------------11b10p8-|----------------|-----------11b10p8-|-----------------|
D-|--------------------|----------------|-------------------|-----------------|
A-|-----10-10----------|----------------|----10-10----------|-----------------|
E-|---8--8--8----------|----------------|--8--8--8----------|-----------------|


E-|---------------------|---------------------|-----------------|-------------|
B-|---------------------|---------------------|-----------------|-------------|
G-|---------------------|-------------------8-|-----------------|-------------|
D-|------------------10-|---10--------10----8-|-----------------|-------------|
A-|-----10-----10-10-10-|---10--------10----6-|---10----10---10-|-------------|
E-|---8--8--8-8-8--8--8-|-8--8----8-8--8--8---|-8--8--8--8-8--8-|-------------|

                                 I bet the derby and I won by a nose
E-|--------------------------|------------------------|-----------------------|
B-|--------------------------|------------------------|-----------------------|
G-|----------------10-----8--|------------------------|----------------8------|
D-|------10--------10-----8--|---10------10-----------|-------10-------8------|
A-|------10---------8-----6--|---10------10-----------|-------10-------6------|
E-|----8--8----8--8---8-8----|-8--8-------8-----------|--------8-----6--------|

        I bet Vegas and they took my clothes     I bet Montecarlo   I    was
E-|-------------------------|-------------------|-----------------------------|
B-|-------------------------|-------------------|-----------------------------|
G-|-------------------------|--------10---------|-----------------------------|
D-|---10------10------------|--------10---------|---10------10----------------|
A-|---10------10------------|--------8----------|---10------10----------------|
E-|----8-------8------------|-------------------|----8-------8----------------|

    showing my stuff     I bet on you baby now aint that enough.  You got to
E-|-----------------------|-------------------|-------------------------------|
B-|-----------------------|-------------------|-------------------------------|
G-|--------------------8--|---10-------10-----|----------10-------------------|
D-|-------------10-----8--|---10-------10-----|----------10-------------------|
A-|-------------10-----8--|----8--------8-----|-----------8-------/15---------|
E-|--------------8---6----|-------------------|--------------------------15\3-|

    give it up.                                     Give it up baby
E-|-----------------------------|------------------|--------------------------|
B-|-----------------------------|------------------|--------------------------|
G-|-----------------------------|------------------|--------------------------|
D-|------10-------10------------|---10-------------|------10---10-------------|
A-|------10-------10------------|---10-------------|------10---10-------------|
E-|--8----8--------8----13-13-13|-8--8-8-8---------|-8-----8----8-------------|

                               Give it up                             U got to
E-|---------------------------|----------------------|------------------------|
B-|----------------------8----|----------------------|------------------------|
G-|---------------10-----8--8-|----------------------|--------------10---8-8--|
D-|---10----------10-----8--8-|-10--10---------------|--------------10---8-8--|
A-|---10-----------8--8--6--6-|-10--10---------------|---10-10-------8-8-6-6--|
E-|-8--8--8--6/8--------------|--8---8-------8-------|-8--8--8--6/8-----------|

    give it up baby or tell me where its at
E-|-------------------|--------------------------
B-|-------------------|--------------------------
G-|-------------------|--------------------------
D-|---------10--------|--------------------------
A-|---------10--------|--------------------------
E-|----------8-----15-|--------------------------

That should cover you for all 3 of the verses.


ZZ Top albums
1999 XXX
1996 Rhythmeen
1994 Antenna
1990 Recycler
1985 Afterburner
1983 Eliminator
1981 El Loco
1979 Deguello
1976 Tejas
1975 Fandango!
1973 Tres Hombres
1972 Rio Grande Mud
1970 First Album
Recycler tabs
01Concrete And Steel tabbass tab
02Lovething tabbass tab
03Penthouse Eyes tabbass tab
04Tell It tabbass tab
05My Head's In Mississippi tabbass tab
07Give It Up tabbass tab
082000 Blues (Slow Blues Feel) tabbass tab
09Burger Man tabbass tab
10Doubleback tabbass tab

 

1